Song name
# A B C D E F G H I J K L M N O P Q R S T U V W X Y Z

Marianas Trench - Cross My Heart Acoustic tab

Help us improve GuitareTab! Take a short survey!
-------------------------------------------------------------------------------
			     CROSS MY HEART (ACOUSTIC) - MARIANAS TRENCH
-------------------------------------------------------------------------------
Tabbed by:Grieko Geronimo (AKA HybridKaos)
Email:grieko.g-@live.com

My first tab so leave some comments or email me for mistakes. =)

Taken from the acoustic version of their song, found on iTunes
http://www.youtube.com/watch?v=1LOMtHSOe1k

Tuning: Drop D

Intro
Guitar 1
e|---------------------------------------------------------------------------|
G|--7-----7------------7------7------------5-----5-----------5-----5---------|
B|----7-----7---7--------7------7----7-------7-----7---7-------7-----7---7---|x4
D|9-----9-----9--------------------------7-----7-----7-----7-----7-----7-----|   
A|------------------10-----10-----10-----------------------------------------|
D|---------------------------------------------------------------------------|

Guitar 2 (after intro goes twice)
e|-----------------|
G|-----------------|
B|9/11--9/7--7/9---|x8
D|-----------------|
A|7/9---7/5--5/7---|
D|-----------------|


Verse
Guitar 1
e|----------------------------|          e|----------------------------|
G|----------------------------|          G|----------------------------|
B|4~--------------------------|x2   OR   B|----------------------------|x2
D|4~-----5~-----0~-----7~-----|          D|9~-----5~-----0~-----7~-----|
A|2~-----5~-----0~-----7~-----|          A|9~-----5~-----0~-----7~-----|
D|-------5~-----0~-----7~-----|          D|9~-----5~-----0~-----7~-----|

Guitar 2 (piano part) (after Guitar 1 goes once)
e|14--14-12--12-10--10--------------|
G|---------------------14--14-12-10-|
B|----------------------------------|x4 (goes into pre-chorus)
D|----------------------------------|
A|----------------------------------|
D|----------------------------------|


Pre-Chorus
Guitar 1 (figure out strumming on your own)
e|------------|
G|------------|
B|------------|
D|2-----5-----|
A|2-----5-----|
D|2-----5-----|

Guitar 2 (same as verse)
e|14--14-12--12-10--10--------------|
G|---------------------14--14-12-10-|
B|----------------------------------|x2
D|----------------------------------|
A|----------------------------------|
D|----------------------------------|


Chorus
Both
e|-----------|-----------|-----------|--------------|
B|-----------|-----------|-----------|--------------|
G|55---------|55---------|55---------|--------------|
D|55-77-99-55|55-77-99-55|55-77-99-55|2~-----7~-----|
A|77-77-99-55|77-77-99-55|77-77-99-55|2~-----7~-----|
D|---77-99-55|---77-99-55|---77-99-55|2~-----7~-----|


Intro


Verse


Pre-Chorus


Chorus


Bridge
Guitar 1
e|7---7---7---7--|       
B|--5---5---5---5|       
G|---------------|x4     
D|---------------|       
A|---------------|       
D|---------------|       

e|----xx-xx--xx-----xx-xx--xx------------------------------|
B|----xx-xx--xx-----xx-xx--xx------------------------------|
G|5-5-xx-xx--xx-5-5-xx-xx--xx-5----------------------------|
D|555-xx-xx--xx-555-xx-xx--xx-55-99999999-55555555-77777777|
A|757-xx-xx--xx-757-xx-xx--xx-75-99999999-55555555-77777777|
D|-5--xx-xx--xx--5--xx-xx--xx--5-99999999-55555555-77777777|


Outro
Guitar 1
e|-----------------------|
B|-----------------------|
G|-----------------------|x till the end (don't hold after 1st time, strum) 
D|9~-----5~-----0~-----7~|
A|9~-----5~-----0~-----7~|
D|9~-----5~-----0~-----7~|

Guitar 2
e|14--14-12--12-10--10--------------|
G|---------------------14--14-12-10-|
B|----------------------------------|x4
D|----------------------------------|
A|----------------------------------|
D|----------------------------------|

| /  slide up
| \  slide down
| h  hammer-on
| p  pull-off
| ~  vibrato
| +  harmonic
| x  Mute note
===============================================================================
Related for Cross My Heart Acoustic tab