Song name
# A B C D E F G H I J K L M N O P Q R S T U V W X Y Z

Marianas Trench - Beside You tab

----------------------------------------------------------------------------
                        Beside You - Marianas Trench
----------------------------------------------------------------------------

Tabbed by: Nightlace
Tuning: Standard

Version 1 was tabbed almost correctly, I just wanted to add the lyrics and
the bridge. The strumming pattern for the chords is really easy to figure
out, and you can play the chorus open stringed or not.

Verse 1
.......

When your tears are spent on your last pretense
And your tired eyes refuse to close and sleep in your defense
When it's in your spine like you've walked for miles

e|------------------------------------------------|
B|------------------------------------------------|
G|-----9-----------8-----------9-----------9------|
D|---9---9---9---9---9---9---9---9---9---9---9---9| x3 (Throughout verse)
A|-7-------7---6-------6---0-------0---0-------0--|
E|------------------------------------------------|

And the only thing you want is just to be still for a while

e|------------------------------------------------|
B|------------------------------------------------|
G|-----9-----------8-----------9-----9-----9------|
D|---9---9---9---9---9---9---9---9-----9-----9----|
A|-7-------7---6-------6---0-------0-----0-----0--|
E|------------------------------------------------|

During the vocals you can either continue playing the tab for the verse or
the chords for the chorus.

Chorus
......

And if your heart wears thin I will hold you up

e|------------|
B|------------|
G|-9999--8888-|
D|-9999--9999-|
A|-7777--9999-|
E|-------7777-|

And I will hide you when it gets too much

e|------------|
B|-5555-------|
G|-6666--2222-|
D|-6666--2222-|
A|-4444-------|
E|------------|

I'll be right beside you
e|------------|
B|------------|
G|-9999--8888-|
D|-9999--9999-|
A|-7777--9999-|
E|-------7777-|

I'll be right beside you

e|------------|
B|-5555-------|
G|-6666--2222-|
D|-6666--2222-|
A|-4444-------|
E|------------|

Verse 2
.......

When you're overwhelmed and you've lost your breath
And the space between the things you know are blurry nonetheless
When you try to speak but you make no sound

e|------------------------------------------------|
B|------------------------------------------------|
G|-----9-----------8-----------9-----------9------|
D|---9---9---9---9---9---9---9---9---9---9---9---9| x3 (Throughout verse)
A|-7-------7---6-------6---0-------0---0-------0--|
E|------------------------------------------------|

And the words you want are out of reach, but they've never been so loud

e|------------------------------------------------|
B|------------------------------------------------|
G|-----9-----------8-----------9-----9-----9------|
D|---9---9---9---9---9---9---9---9-----9-----9----|
A|-7-------7---6-------6---0-------0-----0-----0--|
E|------------------------------------------------|

Chorus
......

And if your heart wears thin I will hold you up

e|------------|
B|------------|
G|-9999--8888-|
D|-9999--9999-|
A|-7777--9999-|
E|-------7777-|

And I will hide you when it gets too much

e|------------|
B|-5555-------|
G|-6666--2222-|
D|-6666--2222-|
A|-4444-------|
E|------------|

I'll be right beside you
e|------------|
B|------------|
G|-9999--8888-|
D|-9999--9999-|
A|-7777--9999-|
E|-------7777-|

I'll be right beside you

e|------------|
B|-5555-------|
G|-6666--2222-|
D|-6666--2222-|
A|-4444-------|
E|------------|

I will stay with you

e|------------|
B|------------|
G|-9999--8888-|
D|-9999--9999-|
A|-7777--9999-|
E|-------7777-|

Nobody will break you, yeah

e|------------|
B|-5555-------|
G|-6666--2222-|
D|-6666--2222-|
A|-4444-------|
E|------------|

Bridge
......

Trust in me, trust in me
Don't pull away

e|----------------|
B|----------------|
G|-6-8-9-4---2222-|
D|-6-8-9-4---2222-|
A|-4-6-7-2--------|
E|----------------|

Just trust in me, trust in me

e|----------------|
B|----------------|
G|-6-8-9-4---2222-|
D|-6-8-9-4---2222-|
A|-4-6-7-2--------|
E|----------------|

Cause I'm just trying to keep it together
Cause I could do worse and you could do better

eb|------|
bb|------|
gb|-4444-|
Db|-4444-|
Ab|-2222-|
Eb|------|

Pre-Chorus
..........

When your tears are spent on your last pretense

e|------------------------------------------------|
B|------------------------------------------------|
G|-----9-----------8-----------9-----------9------|
D|---9---9---9---9---9---9---9---9---9---9---9---9|
A|-7-------7---6-------6---0-------0---0-------0--|
E|------------------------------------------------|

And your tired eyes refuse to close and sleep in your defense

e|------------------------------------------------|
B|------------------------------------------------|
G|-----9-----------8-----------9-----9-----9------|
D|---9---9---9---9---9---9---9---9-----9-----9----|
A|-7-------7---6-------6---0-------0-----0-----0--|
E|------------------------------------------------|

Chorus
......

And if your heart wears thin I will hold you up

e|------------|
B|------------|
G|-9999--8888-|
D|-9999--9999-|
A|-7777--9999-|
E|-------7777-|

And I will hide you when it gets too much

e|------------|
B|-5555-------|
G|-6666--2222-|
D|-6666--2222-|
A|-4444-------|
E|------------|

I'll be right beside you
e|------------|
B|------------|
G|-9999--8888-|
D|-9999--9999-|
A|-7777--9999-|
E|-------7777-|

Nobody will break you

e|------------|
B|-5555-------|
G|-6666--2222-|
D|-6666--2222-|
A|-4444-------|
E|------------|

Chorus x2 

End on Am7
Tap to rate this tab
# A B C D E F G H I J K L M N O P Q R S T U V W X Y Z