Marianas Trench - Low tab

This is an improved version
of the tab i posted a few days ago,
i was playing it and i started thinking,
not only was is too simple,
but it didn't quite sound right

note:I played this with a capo 2nd fret,
but im not sure if my guitar is tuned high enough either
so if it sounds right to you than dont use a capo

intro
e|----------------------------------|
B|--1-3-3-1-3-3-1-3-3-1-3-3-1-3-3-3-|
G|--0-2-2-0-2-2-0-2-2-0-2-2-0-2-2-2-|
D|----------------------------------|
A|----------------------------------|
E|----------------------------------|
repeat 2 more times


e|----------------------------------|
B|----------------------------------|
G|----------------------------------|
D|--3-3-3-------7-7-7-------2-2-2-2-|
A|--1-1-1-5-5-5-5-5-5-4-4-4-0-0-0-0-|
E|--------3-3-3-------2-2-2---------|
repeat 3 more times

verse 1
e|-----------------------------------|
B|-----------------------------------|
G|-----------------------------------|
D|--3-3-3-3---------7-7-8-8-5-5-5-5--|
A|--1-1-1-1-5-5-5-5-5-5-6-6-3-3-3-3--|
E|----------3-3-3-3------------------| x3

chorus
e|------------------------------------------------------------------------------------|
B|-------------------1-1-------------------------1-------------------------------1----|
G|-------------------0-0-2-2-2-2-5-5-5-5-3-3-3-3-0-2-2-2-2-2-2-2-5-5-5-5-3-3-3-3-0-2--|
D|-----------------------0-0-0-0-0-0-0-0-0-0-0-0---0-0-0-0-0-0-0-0-0-0-0-0-0-0-0---0--|
A|--5----2----------------------------------------------------------------------------|
E|--3----0----------------------------------------------------------------------------| x2

verse 2
e|-----------------------------------|
B|-----------------------------------|
G|-----------------------------------|
D|--3-3-3-3---------7-7-8-8-5-5-5-5--|
A|--1-1-1-1-5-5-5-5-5-5-6-6-3-3-3-3--|
E|----------3-3-3-3------------------| x3

chorus
e|-----------------------------------------------------------------------------------|
B|-------------------1-1-------------------------1-------------------------------1---|
G|-------------------0-0-2-2-2-2-5-5-5-5-3-3-3-3-0-2-2-2-2-2-2-2-5-5-5-5-3-3-3-3-0-2-|
D|-----------------------0-0-0-0-0-0-0-0-0-0-0-0---0-0-0-0-0-0-0-0-0-0-0-0-0-0-0---0-|
A|--5----2---------------------------------------------------------------------------|
E|--3----0---------------------------------------------------------------------------|x2


interlude

on the last bar of the interlude play this

e|----------------------------------|
B|--1-3-3-1-3-3-1-3-3-1-3-3-1-3-3-3-|
G|--0-2-2-0-2-2-0-2-2-0-2-2-0-2-2-2-|
D|----------------------------------|
A|----------------------------------|
E|----------------------------------|
repeat 2 more times

chorus
e|-----------------------------------------------------------------------------------|
B|-------------------1-1-------------------------1-------------------------------1---|
G|-------------------0-0-2-2-2-2-5-5-5-5-3-3-3-3-0-2-2-2-2-2-2-2-5-5-5-5-3-3-3-3-0-2-|
D|-----------------------0-0-0-0-0-0-0-0-0-0-0-0---0-0-0-0-0-0-0-0-0-0-0-0-0-0-0---0-|
A|--5----2---------------------------------------------------------------------------|
E|--3----0---------------------------------------------------------------------------|

play the chorus until

e|----------------------------------|
B|----------------------------------|
G|----------------------------------|
D|--3-3-3-------7-7-7-------2-2-2-2-|
A|--1-1-1-5-5-5-5-5-5-4-4-4-0-0-0-0-|
E|--------3-3-3-------2-2-2---------|
repeat 3 more times

thats pretty much it, if you have questions,
corrections, or somthing else
my email is maxvangauthier@hotmail.com
Tap to rate this tab
 
# A B C D E F G H I J K L M N O P Q R S T U V W X Y Z