Song name
# A B C D E F G H I J K L M N O P Q R S T U V W X Y Z

Marianas Trench - By Now tab

By Now Marianas Trench

Guitar 1 (Acoustic) - EADGBe
Guitar 2 (Electric) - EADGBe
Bass - EADG



INTRO

Gtr 1
e|2-2-2-2-2-2-0-0-|0-0-0-0-0-0-----|
B|3-3-3-3-3-3-3-3-|3-3-3-3-3-3-3-3-|
G|----------------|----------------|
D|----------------|----------------| x1
A|2-2-2-2---------|0-0-2-2---------|
E|--------3-3-3-3-|--------3-3-3-3-|


VERSE 1

Gtr 1
e|2-2-2-2-2-2-0-0-|0-0-0-0-0-0-----|
B|3-3-3-3-3-3-3-3-|3-3-3-3-3-3-3-3-|
G|----------------|----------------|
D|----------------|----------------| x2
A|2-2-2-2---------|0-0-2-2---------|
E|--------3-3-3-3-|--------3-3-3-3-|

How have you been, can I come in? Just came to get my things and then I guess Im 
leaving. If I could say what youd like to hear, Id whisper in your ear its only 
temporary. But Ive been ...


Gtr 1
e|x-x-x-x-|
B|3-3-3-3-|
G|0-0-0-0-|
D|0-0-0-0-| 
A|x-x-x-x-|
E|3-3-3-3-|
||
Gtr 2
e|--------|
B|--------|
G|--------|
D|5-5-5-5-| 		x1
A|5-5-5-5-|
E|3-3-3-3-| 
||
Bass
G|--------|
D|--------| 
A|--------|
E|3~~~~~~~| 

Taking you for granted and I ...


CHORUS

Gtr 1
e|2-2-2-2-2-2-2-2-|2-2-2-2-3-3-3-3-|2-2-2-2-2-2-2-2-|2-2-2-2-3-3-3---|
B|3-3-3-3-3-3-3-3-|3-3-3-3-3-3-3-3-|3-3-3-3-3-3-3-3-|3-3-3-3-3-3-3---|
G|2-2-2-2-2-2-2-2-|2-2-2-2-0-0-0-0-|2-2-2-2-2-2-2-2-|2-2-2-2-0-0-0---|
D|0-0-0-0-2-2-2-2-|0-0-0-0-0-0-0-0-|0-0-0-0-2-2-2-2-|0-0-0-0-0-0-0---|
A|x-x-x-x-0-0-0-0-|2-2-2-2-2-2-2-2-|x-x-x-x-0-0-0-0-|2-2-2-2-2-2-2---|
E|x-x-x-x-x-x-x-x-|x-x-x-x-3-3-3-3-|x-x-x-x-x-x-x-x-|x-x-x-x-3-3-3---|
||
Gtr 2
e|----------------|----------------|----------------|----------------|
B|----------------|----------------|----------------|----------------|
G|7-7-7-7---------|----------------|7-7-7-7---------|----------------|
D|7-7-7-7-7-7-7-7-|9-9-9-9-5-5-5-5-|7-7-7-7-7-7-7-7-|9-9-9-9-55555---|
A|5-5-5-5-7-7-7-7-|9-9-9-9-5-5-5-5-|5-5-5-5-7-7-7-7-|9-9-9-9-55555---|
E|--------5-5-5-5-|7-7-7-7-3-3-3-3-|--------5-5-5-5-|7-7-7-7-33333---|
||
Bass
G|----------------|----------------|----------------|----------------|
D|0-0-0-0---------|----------------|0-0-0-0---------|----------------|
A|--------0-0-0-0-|2-2-2-2---------|--------0-0-0-0-|2-2-2-2---------|
E|----------------|--------3-3-3-3-|----------------|--------33333---|

x2

Thought youd feel the same as me, its time that I come clean. But, but for now 
can we, just both pretend to sleep. Sometimes the one you want is not the one you 
need, what goes around don't come around. You should know me by now. Better than, 
should know me by now, I should know you as well.


VERSE 2

Our talk is ...

Gtr 1
e|2---2---2---2---2---2---0---0---|0---0---0---0---0---0-----------|
B|3---3---3---3---3---3---3---3---|3---3---3---3---3---3---3---3---|
G|--------------------------------|--------------------------------|
D|--------------------------------|--------------------------------| 
A|2---2---2---2-------------------|0---0---2---2-------------------|
E|----------------3---3---3---3---|----------------3---3---3---3---|
||
Gtr 2
e|--------------------------------|--------------------------------|
B|--------------------------------|--------------------------------|
G|--------------------------------|--------------------------------|
D|99999-----------55555-----------|7777----9999----555-555---------|
A|99999-----------55555-----------|7777----9999----555-555---------|
E|77777-----------33333-----------|5555----7777----333-333---------|
||.....           .....            ....    ....    ... ...   (pm) 
Bass
G|--------------------------------|--------------------------------|
D|--------------------------------|--------------------------------|
A|22222---------------------------|0000----2222------------------0-|
E|----------------33333-----------|----------------233-233-----3---|

Small, Im 7 inches tall and you should keep the apartment. So heres my ...


Gtr 1
e|2---2---2---2---2---2---0---0---|0---0---0---0---0---0-----------x---x---x---x---|
B|3---3---3---3---3---3---3---3---|3---3---3---3---3---3---3---3---3---3---3---3---|
G|--------------------------------|--------------------------------0---0---0---0---|
D|--------------------------------|--------------------------------0---0---0---0---| 
A|2---2---2---2-------------------|0---0---2---2-------------------x---x---x---x---|
E|----------------3---3---3---3---|----------------3---3---3---3---3---3---3---3---|
||
Gtr 2
e|--------------------------------|------------------------------------------------|
B|--------------------------------|------------------------------------------------|
G|--------------------------------|------------------------------------------------|
D|99999-----------55555-----------|7777----9999----555-555-555-555-555-555-555-555-|
A|99999-----------55555-----------|7777----9999----555-555-555-555-555-555-555-555-|
E|77777-----------33333-----------|5555----7777----333-333-333-333-333-333-333-333-|
||.....           .....            ....    ....    ... ... ... ... ... ... ... ... 
Bass
G|--------------------------------|------------------------------------------------|
D|--------------------------------|------------------------------------------------|
A|22222---------------------------|0000----2222------------------------------------|
E|----------------33333-----------|----------------233-233-233-233-233-233-233-233-|
Keys, change all the bills. Were only build to spill and wonder where the heart went. 
Youve been taking me for granted and I ...


CHORUS

BRIDGE

Gtr 2
e|----------------|----------------|----------------|----------------|
B|----------------|----------------|----------------|----------------|
G|----------------|----------------|----------------|----------------|
D|7777777799999999|5555555555555555|7777777799999999|5555555555555555|
A|7777777799999999|5555555555555555|7777777799999999|5555555555555555|
E|5555555577777777|3333333333333333|5555555577777777|3333333333333333|
||
Bass
G|----------------|----------------|----------------|----------------|
D|----------------|----------------|----------------|----------------|
A|0~~~~~~~2~~~~~~~|----------------|0~~~~~~~2~~~~~~~|----------------|
E|----------------|3~~~~~~~~~~~~~~~|----------------|3~~~~~~~~~~~~~~~|

I know that I remember you. I think that you remember me too. How can 
one of us still feel blessed when the other ones lost? I know that you 
got to feel the change. Just gets worse when it stays the same. How can 
one of us still feel blessed when the other ones ...

OUTRO

Gtr 1
e|2-2-2-2-2-2-0-0-|0-0-0-0---------|
B|3-3-3-3-3-3-3-3-|3-3-3-3-3-------|
G|----------------|----------------|
D|----------------|----------------| 
A|2-2-2-2---------|0-0-2-2---------|
E|--------3-3-3-3-|--------3-------|

So lost.

CHORUS x2 
Tap to rate this tab
# A B C D E F G H I J K L M N O P Q R S T U V W X Y Z