Song name
# A B C D E F G H I J K L M N O P Q R S T U V W X Y Z

Marianas Trench - So Soon tab

Tuning: Standard

this is pretty much picked, you pick all three strings (or four) at the same time. these
aren't chords but do have the formulas of the chord it stands for. you pick each one
about 4 times and at some points you pick just a single string. I would listen to the 
song for chord changes and to see how many time you pluck the strings. this is just an
estimate of how many times you play each 'chord'.


VERSE 1:
e|--2----2----2----2------2-2-2-2------2-2-2-2--2-2-2-2--2-2-2-2--2-2-2-2---|
B|--3----3----3----3------3-3-3-3------3-3-3-3--3-3-3-3--3-3-3-3--3-3-3-3---|
G|--2--------------0-------------------2-2-2-2------------------------------|
D|---------------------------------0----------------------------------------|
A|-------2----0---------------------------------2-2-2-2--0-0-0-0------------|
E|--------------------3---3-3-3-3----------------------------------3-3-3-3--|
"you say sometimes, it's like a hardly know ya. . ."


CHORUS:
e|-2-2-2-2--2-2-2-2--2-2-2-2--2-2-2-2--2-2-2-2--2-2-2-2--2-2-2-2--2-2-2-2---|
B|-3-3-3-3--3-3-3-3--3-3-3-3--3-3-3-3--3-3-3-3--3-3-3-3--3-3-3-3--3-3-3-3---|
G|-2-2-2-2-----------------------------2-2-2-2------------------------------|
D|--------------------------------------------------------------------------|
A|----------2-2-2-2--0-0-0-0--------------------2-2-2-2--0-0-0-0------------|
E|----------------------------3-3-3-3-----------------------------3-3-3-3---|
"I know we, said it's just as well that I won't keep. . . "

BREAK:
e|-2-2-2-2--2-2-2-2--2-2-2-2--2-2-2-2---------------------------------------|
B|-3-3-3-3--3-3-3-3--3-3-3-3--3-3-3-3---------------------------------------|
G|----------------------------2-2-2-2---------------------------------------|
D|--------------------------------------------------------------------------|
A|----------0-0-0-0--2-2-2-2------------------------------------------------|
E|-3-3-3-3------------------------------------------------------------------|

VERSE 2:
e|-2-2-2-2--2-2-2-2--2-2-2-2--2-2-2-2--2-2-2-2--2-2-2-2--2-2-2-2--2-2-2-2---|
B|-3-3-3-3--3-3-3-3--3-3-3-3--3-3-3-3--3-3-3-3--3-3-3-3--3-3-3-3--3-3-3-3---|
G|-2-2-2-2-----------------------------2-2-2-2------------------------------|
D|--------------------------------------------------------------------------|
A|----------2-2-2-2--0-0-0-0--------------------2-2-2-2--0-0-0-0------------|
E|----------------------------3-3-3-3-----------------------------3-3-3-3---|
"I know something's, should just stay broken. . . "

CHORUS:
e|-2-2-2-2--2-2-2-2--2-2-2-2--2-2-2-2--2-2-2-2--2-2-2-2--2-2-2-2--2-2-2-2---|
B|-3-3-3-3--3-3-3-3--3-3-3-3--3-3-3-3--3-3-3-3--3-3-3-3--3-3-3-3--3-3-3-3---|
G|-2-2-2-2-----------------------------2-2-2-2------------------------------|
D|--------------------------------------------------------------------------|
A|----------2-2-2-2--0-0-0-0--------------------2-2-2-2--0-0-0-0------------|
E|----------------------------3-3-3-3-----------------------------3-3-3-3---|
"I know we, said it's just as well that I won't keep. . . "

BRIDGE:
e|-2-2-2-2--2-2-2-2--2-2-2-2--2-2-2-2--2-2-2-2--2-2-2-2--2-2-2-2--2-2-2-2---|
B|-3-3-3-3--3-3-3-3--3-3-3-3--3-3-3-3--3-3-3-3--3-3-3-3--3-3-3-3--3-3-3-3---|
G|-2-2-2-2--2-2-2-2--2-2-2-2--2-2-2-2--2-2-2-2--2-2-2-2--2-2-2-2--2-2-2-2---|
D|-0-0-0-0-----------------------------0-0-0-0------------------------------|
A|----------2-2-2-2--0-0-0-0--------------------2-2-2-2--0-0-0-0------------|
E|----------------------------3-3-3-3-----------------------------3-3-3-3---|
"I know it seems beneath me, but sometimes it's not so easy. . . "

REPEAT THIS FOR THE REST OF THE SONG:
e|-2-2-2-2--2-2-2-2--2-2-2-2--2-2-2-2--2-2-2-2--2-2-2-2--2-2-2-2--2-2-2-2---|
B|-3-3-3-3--3-3-3-3--3-3-3-3--3-3-3-3--3-3-3-3--3-3-3-3--3-3-3-3--3-3-3-3---|
G|-2-2-2-2-----------2-2-2-2-----------2-2-2-2-----------2-2-2-2------------|
D|-0-0-0-0-----------------------------0-0-0-0------------------------------|
A|----------2-2-2-2--0-0-0-0--------------------2-2-2-2--0-0-0-0------------|
E|----------------------------3-3-3-3-----------------------------3-3-3-3---|


enjoy!
Tap to rate this tab
# A B C D E F G H I J K L M N O P Q R S T U V W X Y Z