Guitaretab - guitar tabs
Song name
# A B C D E F G H I J K L M N O P Q R S T U V W X Y Z

Marianas Trench - Shake Tramp tab

Hey guys, this is my first tab, so bare with me a little here :P

There are still a few parts that I haven't figured out yet, but basically I have the main jest of it.

So, from what I can tell, it's in standard tuning.

At the beginning it's all vocals until after the Bah Bah's. You hit on the second beat 
the final Bah

Intro:

Rhythm
 __                                                __
|   e|------------|      |-----|   |-----------|     |
|   B|------------|      |-----|   |-----------|     |
|   G|--4-4-4-4-4-|      |-----|   |-----------|     |
|   D|--4-4-4-4-4-|  X7  |-6-6-|   |-2-2-2-2-2-|X7   |X2
|   A|--2-2-2-2-2-|      |-6-6-|   |-2-2-2-2-2-|     |
|__ E|------------|      |-4-4-|   |-0-0-0-0-0-|   __|

Lead
(Play underneath, at the same tempo as Rhythm guitar
                                                __
e|-----------|      |------------------------|    |
B|--4-4-4-4-4|      |-4H5-5-5-5-5-4-4H5-5-5-5|    |
G|--4-4-4-4-4|  X7  |-4-4-4-4-4-4-4-4-4-4-4-4|    |
D|-----------|      |------------------------|    |  x2
A|-----------|      |------------------------|    |
E|-----------|      |------------------------|  __|

Lead & Rhythm

e|------------------------------------------------|
B|------------------------------------------------|
G|----4---------------------------4---------------|
D|----4--------6----2--------6----4--------6----2-|
A|----2--------6----2--------6----2--------6----2-|
E|-------------4----0--------4-------------4----0-|

Chorus: Unknown. Please email me with any ideas as to what it may be.

e|
B|
G|
D|
A|
E|

Pro-Chorus: lead
e|---------------------------------------------------------------------|
B|---------------------------------------------------------------------|
G|--4-4-4-4-4-4-4-4-4-4-4-4-4-4-4--------------------------------------|
D|--2-2-2-2-2-2-2-2-2-2-2-2-2-2-2---6-6-6-6-6(6)----x-x-4(4)--x-x-2(2)-|
A|--2-2-2-2-2-2-2-2-2-2-2-2-2-2-2---6-6-6-6-6(6)----x-x-4(4)--x-x-2(2)-|
E|----------------------------------4-4-4-4-4(4)----x-x-2(2)--x-x-0(0)-|

e|---------------------------------------------------------------|
B|---------------------------------------------------------------|
G|--4-4-4-4-4-4-4-4-4-4-4-4-4-4-4--------------------------------|
D|--2-2-2-2-2-2-2-2-2-2-2-2-2-2-2---6-6-6(6)--x-x-4(4)--x-x-2(2)-|
A|--2-2-2-2-2-2-2-2-2-2-2-2-2-2-2---6-6-6(6)--x-x-4(4)--x-x-2(2)-|
E|----------------------------------6-6-4(4)--x-x-2(2)--x-x-0(0)-|

e|-------------------------------------------------------------|
B|-------------------------------------------------------------|
G|--4-4-4-4-4-4-4-4-4-4-4-4-4-4-4------------------------------|
D|--2-2-2-2-2-2-2-2-2-2-2-2-2-2-2---6-6--2-2-2-2-2-2-2-2-2-2-2-|
A|--2-2-2-2-2-2-2-2-2-2-2-2-2-2-2---6-6--2-2-2-2-2-2-2-2-2-2-2-|
E|----------------------------------4-4--0-0-0-0-0-0-0-0-0-0-0-|
[ Tab from: http://www.guitaretab.com/m/marianas-trench/89484.html ]
e|------------------------------------------------|
B|------------------------------------------------|
G|----4---------------------------4---------------|
D|----4--------6----2--------6----4--------6----2-|
A|----2--------6----2--------6----2--------6----2-|
E|-------------4----0--------4-------------4----0-|

Chorus:

e|--
B|--
G|--
D|--
A|--
E|--

e|---------------------------------------------------------------------|
B|---------------------------------------------------------------------|
G|--4-4-4-4-4-4-4-4-4-4-4-4-4-4-4--------------------------------------|
D|--2-2-2-2-2-2-2-2-2-2-2-2-2-2-2---6-6-6-6-6(6)----x-x-4(4)--x-x-2(2)-|
A|--2-2-2-2-2-2-2-2-2-2-2-2-2-2-2---6-6-6-6-6(6)----x-x-4(4)--x-x-2(2)-|
E|----------------------------------4-4-4-4-4(4)----x-x-2(2)--x-x-0(0)-|

e|---------------------------------------------------------------|
B|---------------------------------------------------------------|
G|--4-4-4-4-4-4-4-4-4-4-4-4-4-4-4--------------------------------|
D|--2-2-2-2-2-2-2-2-2-2-2-2-2-2-2---6-6-6(6)--x-x-4(4)--x-x-2(2)-|
A|--2-2-2-2-2-2-2-2-2-2-2-2-2-2-2---6-6-6(6)--x-x-4(4)--x-x-2(2)-|
E|----------------------------------4-4-4(4)--x-x-2(2)--x-x-0(0)-|

e|-----------|      |------------------------|    |
B|--4-4-4-4-4|      |-4H5-5-5-5-5-4-4H5-5-5-5|    |
G|--4-4-4-4-4|  X7  |-4-4-4-4-4-4-4-4-4-4-4-4|    |
D|-----------|      |------------------------|    |  x2
A|-----------|      |------------------------|    |
E|-----------|      |------------------------|  __|

Bridge:

e|---------------------------------------------|
B|---------------------------------------------|
G|--4(4)-------------------------------x--4(4)-|
D|--4(4)--4(4)--x-2(2)-----2(2)--2(2)--x--4(4)-|
A|--2(2)--4(4)--x-2(2)-----2(2)--2(2)--x--2(2)-|
E|--------2(2)--x-0(0)-----0(0)--2(2)--x-------|

Rhythm
 __                                                __
|   e|------------|      |-----|   |-----------|     |
|   B|------------|      |-----|   |-----------|     |
|   G|--4-4-4-4-4-|      |-----|   |-----------|     |
|   D|--4-4-4-4-4-|  X7  |-6-6-|   |-2-2-2-2-2-|X7   |X2
|   A|--2-2-2-2-2-|      |-6-6-|   |-2-2-2-2-2-|     |
|__ E|------------|      |-4-4-|   |-0-0-0-0-0-|   __|

e|------------------------------|
B|------------------------------|
G|------------------------------|
D|--2-2--4-4--5-5-5-5-5-5-5-5-5-|
A|--2-2--4-4--5-5-5-5-5-5-5-5-5-|
E|--0-0--2-2--3-3-3-3-3-3-3-3-3-|

Lead
(Play underneath, at the same tempo as Rhythm guitar)
                                                __
e|-----------|      |------------------------|    |
B|--4-4-4-4-4|      |-4H5-5-5-5-5-4-4H5-5-5-5|    |
G|--4-4-4-4-4|  X7  |-4-4-4-4-4-4-4-4-4-4-4-4|    |
D|-----------|      |------------------------|    |  x2
A|-----------|      |------------------------|    |
E|-----------|      |------------------------|  __|

e|-----------------|
B|-----------------|
G|--4-4------------|
D|--4-4--2-2--4(4)-|      x15   Hold last note on last set.
A|--4-4--2-2--4(4)-|
E|-------0-0--2(2)-|
Related for Shake Tramp tab
Shake Tramp chords by Marianas Trench