Guitaretab - guitar tabs
Song name
# A B C D E F G H I J K L M N O P Q R S T U V W X Y Z

Marie Digby - Voice On The Radio tab

Marie Digby  Voice on The Radio


This is my first tab, not perfect..so feel free to email me at aimez_87@hotmail.com for 
suggestions :)


Tuning E A D F# B Eb


Intro

|----2----2---------|
|----2----2---------|
|----2----2---------|
|----3----4---------|
|----4----4---------|
|----4----2---------|

Last night I fell in love with a stranger
Behind the glass house he came walking out the backdoor
Into a crowd of screaming girls calling his name

Verse
|----2----2----2----2----2----2----2-|
|----2----2----2----2----2----2----2-|
|----2----2----4----2----2----2----2-|
|----4----4----3----4----4----4----3-|
|----4----2----4----2----4----2----4-|
|----2----4----2----4----2----4----4-|

I never saw it coming, the way a voice can make me feel
And I fear that I am falling
I should be old enough to know
Not to fall in love with the voice on the radio

Chorus
|----2----2----2----2-|
|----2----2----2----2-|
|----2----2----4----2-|
|----3----4----3----4-|
|----4----4----4----2-|
|----4----2----2----4-|
[ Tab from: http://www.guitaretab.com/m/marie-digby/107767.html ]
So here I stand fighting what I feel for you
Torn between what reason says and how I really feel
And here I stand, wondering what to say to you
Hoping that you feel the same, the same as I do

Intro chords
He's in a rock band with a voice like an angel
And eyes of a raven sky
And suddenly I find myself twelve years old again
Dreaming of you

Verse
But who am I kidding to even think that you might see me
It's in the stars that girls like me
And boys like you were never meant to be

Chorus
So here I stand fighting what I feel for you
Torn between what reason says and how I really feel
And here I stand, wondering what to say to you
Hoping that you feel the same, the same as I do

Bridge

|----2----2----2----2----|
|----2----2----2----2----|
|----4----2----2----2----|
|----3----4----4----4----|
|----4----2----4----2----|
|----2----4----2----4----|

Would you be scared if I told you I like you
And would you run if I told you I love you

Chorus
Cuz here I stand fighting what I feel for you
Torn between what reason says and how I really feel
And here I stand, wondering what to say to you
Hoping that you feel the same, the same
As I do, as I do, as I do

Verse
I never saw it coming, the way a voice can make me feel
And I fear that I am falling
I should be old enough to know
Not to fall in love with the voice on the radio
Related for Voice On The Radio tab