Song name
# A B C D E F G H I J K L M N O P Q R S T U V W X Y Z

Marie Digby - Beauty In Walking Away tab

hi! i'm terence ong!
one of marie's biggest fan!


i just listen to the song and just came up to this.

here is my youtube site! www.youtube.com/tirenspul

then here is the song!

Into &
Verse:
 C#m                B            A           B
-------------------------------------------------------|
----5------------------4------------0-----------4------|
---6------------------4------------2-----------4-------|
--6------------------4------------2-----------4--------|
-4------------------2------------0-----------2---------|
-------------------------------------------------------|


CHorus:
 E                 A            B           A
------------------------------------------------------|
-0-----------------0------------4-----------0---------|
-3-----------------2------------4-----------2---------|
-2-----------------2------------4-----------2---------|
-2-----------------0------------2-----------0---------|
------------------------------------------------------|

Bridge:
 C#m                B            A           B
-------------------------------------------------------|
-5------------------4------------0-----------4---------|
-6------------------4------------2-----------4---------|
-6----------------- 4------------2-----------4---------|
-4------------------2------------0-----------2---------|
-------------------------------------------------------|




thank you! hope you enjoy it!

i don't know if its right. i just came with it by ear.


thanks!
Tap to rate this tab
# A B C D E F G H I J K L M N O P Q R S T U V W X Y Z