Song name
# A B C D E F G H I J K L M N O P Q R S T U V W X Y Z

Marie Digby - Unfold tab

Unfold - Marie Digby
I heard this song and thought it was absolutely brilliant.
With her voice it is so emotionally powerful.
So I obv HAD to tab it.
She is definitely going to be very huge.




Cadd9 - 032033
G - 320033
Em - 022033
D - 000323



Intro:

---3---5-------7-----10------3---5-------7---10------3---3-----3---3--|
-----3---5-------7------10-----3---5-------7----10-----3---3-----3---3|
---0---0---------------------0---0-------------------0---0-----0---0--|
-----------0---7-----10--------------0---7---10-----------------------|
-3-------------------------3-----------------------3---------3--------|
-------------0-------------------------0------------------------------|

Verse:

---3---5-------7---10------|
-----3---5-------7----10---|
---0---0-------------------|X8
-----------0---7---10------|
--3------------------------|
-------------0-------------|

what i can remember
is alot like water
trickling down a page
of the most beautiful colors
i can't quite put my
finger down on the moment
that i became like ... this

you see, i'm the bravest girl
you will ever come to meet
and yet i shrink down to nothing
at the thought of someone
really seeing me
i think my heart is wrapped around
and tangled up in winding weeds




Chorus:

Strum - Cadd9 G Em D 

Cadd9
But I dont wanna go on living

G
being so afraid of showing

Em                D 
someone else my.. imperfections

Cadd9
even though my feet are trembling

G
and every word i say comes stumbling

Em             D                Cadd9
i will bare it all.. watch me unfold


Unfold, Unfold...

--0--7--10--|
--5--7--10--|
--0--0--0---|x2
--4--7--10--|
--5--7--0---|
--0--0--0---|



Verse 2:

---3---5-------7---10------|
-----3---5-------7----10---|
---0---0-------------------|X4
-----------0---7---10------|
--3------------------------|
-------------0-------------|

these hands that i hold
behind my back are
bound and broken by my own doing
and i can't feel
anything, anymore
i need a touch to remind me
i'm still real..

Chorus

verse 3:

   Cadd9      G           Em         D

----3----3-----3----3------3----3----2----2----2-
------3----3-----3----3------3----3----3----3----
-------------------------------------------------
----2----2-----0----0------2----2----0----0----0-
--3----------2----------2------------------------      
-------------------------------------------------

  Cadd9       G          Em           D

----3----3------3---3------3----3-----2--|
------3----3------3---3------3----3---3--|
--------------------------------------2--|
----2----2------0---0------2----2--------|
--3-----------2----------2---------------|
-----------------------------------------|



my soul
it's dying to be free
i can't live the rest of my life
so guarded
it's up to me to choose..
what kind of life i lead.



Chorus


played like chorus...you'll probably have to mess around with it a little:

i will allow someone to love me
i will allow someone to love me...


love me.. love me...


watch the video here:
http://www.youtube.com/watch?v=0F3Rm8c3wP0




ENJOY!@! :D
Tap to rate this tab
 
# A B C D E F G H I J K L M N O P Q R S T U V W X Y Z