Song name
# A B C D E F G H I J K L M N O P Q R S T U V W X Y Z

Marie Digby - Come To Life Acoustic tab

..From her second album BREATHING UNDERWATER
..another wonderful song

This is very easy to learn :D
Watch how she plays it here :
http://www.youtube.com/watch?v=2iz2xyhb4yo

Standard Tuning
Capo on 3rd fret!!


Cadd9                    G
There's a river flowing through me
It knows me
D                               Caad9
It's currents they control my emotions

Cadd9                              G
But there's just one stream that evades me
Escapes me
     D                           Cadd9
It overflows when my heart is left open

Cadd9           G                    D                  Cadd9
-----3----3-----------3-----3--------------2------2----------3---3-----l
-------3---3------------3-----3--------------3---3------------3----3---l
--------0---0-------------0-----0--------2-----2----2----------0----0--l
---2-----------------------------------0-------------------2-----------l
-3-----------------2--------------------------------------3------------l
-----------------3-----------------------------------------------------l

Cadd9         Am
Your feelings are the one thing
Em
Out of my control
D
It's not in my hands
Cadd9       Am
Not knowing it's killing me
Em
Where's the way inside your soul?
D
We gotta let it grow

Cadd9                Am             Em                  D
-----3----3------------0----0-------------0----0-------------2----2-----l
-------3---3------------1-----1------------0-----0------------3-----3---l
--------0---0--------2----2-----2------------0-----0-------2----2----2--l
---2---------------2-------------------2------------------0-------------l
-3-----------------------------------2----------------------------------l
------------------------------------------------------------------------l

Chorus:
Cadd9
Like a flower under rain
G
Like a child's first day
D
Like a story's first page
Am
Watch our love come to life
Cadd9
Love is not afraid to rush
G
It's a feeling you should trust
D
It'll be that way with us
Am
Watch our love come to life
Cadd9         G
Come to life, come to life
Watch our love come to life
D
Come to life, come to life
Am
Watch our love come to life

Cadd9           G                    D                  Cadd9
-----3----3-----------3-----3--------------2------2------------0--0----l
-------3---3------------3-----3--------------3---3--------------1---1--l
--------0---0-------------0-----0--------2-----2----2--------2---2---2-l
---2-----------------------------------0-------------------2-----------l
-3-----------------2---------------------------------------------------l
-----------------3-----------------------------------------------------l

(start strumming here)
l
l
l
\/

Cadd9

Cadd9                     G
There's not point in our predictions
               D                                  Cadd9
Or wishing... the paths we're on are somehow connected
Cadd9                          G
Cause you can't see around the corner
               D                                      Cadd9
You wanna... cause you're so afraid life'll leave you rejected
When you least expect it

Cadd9         Am
Your feelings are the one thing
Em
Out of my control
D
It's not in my hands
Cadd9       Am
Not knowing it's killing me
Em
Where's the way inside your soul?
D
We gotta let it grow


Chorus:
Cadd9
Like a flower under rain
G
Like a child's first day
D
Like a story's first page
Am
Watch our love come to life
Cadd9
Love is not afraid to rush
G
It's a feeling you should trust
D
It'll be that way with us
Am
Watch our love come to life
Cadd9         G
Come to life, come to life
Watch our love come to life
D
Come to life, come to life
Am
Watch our love come to life

Cadd9             Am
Hands touch, eyes meet, electricity
Em                  D
No words, heart speaks, what is happening?
Cadd9
You want so bad to fall
Am                   Em
You wanna risk it all...
D
But right now is not your call
Tap to rate this tab
 
# A B C D E F G H I J K L M N O P Q R S T U V W X Y Z