Song name
# A B C D E F G H I J K L M N O P Q R S T U V W X Y Z

Marie Digby - Unfold tab

----------------------
 Unfold - Marie Digby
----------------------

Hey, this is 'Unfold' by Marie Digby. She is an awsome singer songwriter 
so look out for her. 
The INTRO, VERSES and BRIDGE are all plucked. The CHOURS is strummed.

Hope you have fun. Peace =)


CHORDS: [ E A D G B e] (Standard Tuning)
Cadd9   [ 0 3 2 0 3 3]
D       [ x x 0 2 3 2]
Dadd9   [ 0 5 4 0 5 5]
D7sus2  [ 0 010 01010]
Em7     [ 0 2 2 0 3 3]
Em11    [ 0 7 7 0 7 7]
G       [ 3 2 0 0 3 3]



INTRO:
     Cadd9  Dadd9 Em11    D7sus2
e||----3----5--------7----10---------------------|
B||------3----5--------7-----10------------------|
G||----0----0------------------------------------| (x2)
D||--------------0---7----10---------------------|
A||--3-------------------------------------------|
E||----------------0-----------------------------|

     Cadd9      Cadd9
e||----3---3------3---3--------------------------|
B||------3---3------3---3------------------------|
G||----0---0------0---0--------------------------|
D||----------------------------------------------|
A||--3----------3--------------------------------|
E||----------------------------------------------|


VERSE 1:
     Cadd9  Dadd9 Em11    D7sus2
e||----3----5--------7----10---------------------|
B||------3----5--------7-----10------------------|
G||----0----0------------------------------------|
D||--------------0---7----10---------------------| (x8)
A||--3-------------------------------------------|
E||----------------0-----------------------------|

What I can remember
Is a lot like water
Trickling down a page
Of the most beautiful colors
I can't quite put my finger down
On the moment that I became like this

You see, I'm the bravest girl
You'll ever come to meet
Yet, I shrink down to nothing
At the thought of someone really seeing me
I think my heart is wrapped around
And tangled up in winding weeds


CHORUS:
    Cadd9
But, I don't wanna go on living
G
Being so afraid of showing
Em7             D
Someone else my imperfections
   Cadd9
And even though my feet are trembling
G 
Every word I say comes stumbling
Em7            D
I will bare it all
           Cadd9  Dadd9  Em11
Watch me unfold
D7sus2  Cadd9  Dadd9  Em11  D7sus2
 Unfold,       unfold


VERSE 2:
     Cadd9  Dadd9 Em11    D7sus2
e||----3----5--------7----10---------------------|
B||------3----5--------7-----10------------------|
G||----0----0------------------------------------|
D||--------------0---7----10---------------------| (x4)
A||--3-------------------------------------------|
E||----------------0-----------------------------|

These hands that I hold behide my back
Are bound and broken from my own doing
And I can't feel anything anymore
I need a touch to remind me
I'm still real


CHORUS:
      Cadd9
'Cause, I don't wanna go on living
G
Being so afraid of showing
Em7             D
Someone else my imperfections
   Cadd9
And even though my feet are trembling
G 
Every word I say comes stumbling
Em7            D
I will bare it all
           Cadd9  Dadd9  Em11
Watch me unfold
D7sus2  Cadd9  Dadd9  Em11  D7sus2
 Unfold,       unfold


BRIDGE:
     Cadd9      G          Em7        D
e||----3---3------3---3------3---3----2---3---2-------|
B||------3---3------3---3------3---3----3---3---------|
G||----0---0------0---0------0---0----2---2---2-------|
D||---------------------------------------------------|
A||--3------------------------------------------------|
E||-------------3----------0--------------------------|

     Cadd9      G          Em7        D
e||----3---3------3---3------3---3----2---------------|
B||------3---3------3---3------3---3------------------|
G||----0---0------0---0------0---0----2---------------|
D||---------------------------------------------------|
A||--3------------------------------------------------|
E||-------------3----------0--------------------------|

My soul
Cadd9              G
It's dying to be free
        Em7                    D
I can't live the rest of my life so guarded
               Cadd9
It's dying to be free
     G
It's up to me to choose
Em7                  D
What kind of life I lead


CHORUS:
      Cadd9
'Cause, I don't wanna go on living
G
Being so afraid of showing
Em7             D
Someone else my imperfections
   Cadd9
And even though my feet are trembling
G 
Every word I say comes stumbling
Em7            D
I will bare it all
           Cadd9  Dadd9  Em11
Watch me unfold
D7sus2  Cadd9  Dadd9  Em11  D7sus2  Cadd9  Dadd9  Em11
 Unfold,       unfold,      unfold    
D7sus2  Cadd9  Dadd9  Em11  D7sus2  Cadd9  Cadd9  Dadd9
 unfold,       unfold

Em11         D7sus2    Cadd9    Dadd9
I will allow someone to love me
Em11         D7sus2    Cadd9    Dadd9  Em11  D7sus2
I will allow someone to love me        love me
Cadd9  Dadd9  Em11  D7sus2
love me       hummm
Cadd9  Dadd9  Em11  D7sus2
love me
Cadd9  Dadd9  Em11

Tap to rate this tab
# A B C D E F G H I J K L M N O P Q R S T U V W X Y Z