Guitaretab - guitar tabs
Song name
# A B C D E F G H I J K L M N O P Q R S T U V W X Y Z
Home / M / Marie-mai / Rien tab

Marie-mai - Rien tab

RIEN  
MARIE-MAI BOUCHARD
INOXYDABLE
E STANDARD (EADGBE)

_____________________________________________________________________________

INTRO

Guitar 01 -- Rythm
|------------------------------------------------------------------------|
|------------------------------------------------------------------------|
|------------------------------------------------------------------------|
|-2-2-2-2-2-2-2-2-2-2-2--------------5-5-5-5-5-5-5-5-5-5-5---------------|
|-2-2-2-2-2-2-2-2-2-2-2-----2---2-3--5-5-5-5-5-5-5-5-5-5-5-----5-3-2-----|
|-0-0-0-0-0-0-0-0-0-0-0-0-0---0------3-3-3-3-3-3-3-3-3-3-3-3-3-------3---|
        .     .   .     . .   .            .     .   .     . .

|------------------------------------------------------------------------|
|------------------------------------------------------------------------|
|-5-5-5-5-5-5-5-5-5-5-5-5-5-5-5-5----------------------------------------|
|-5-5-5-5-5-5-5-5-5-5-5-5-5-5-5-5--2-2-2-2-2-2-2-2-2-2-2-----454-----020-|
|-3-3-3-3-3-3-3-3-3-3-3-3-3-3-3-3--2-2-2-2-2-2-2-2-2-2-2-----------------|
|----------------------------------0-0-0-0-0-0-0-0-0-0-0-0-0-----0-0-----|
        .     .   .     . .   .          .     .   .     . .     . .

Guitar 02 -- Lead
|-------------------------------------------------------------------------|
|-1p0-7-8-0-1p0-1p0-7-8-0-1p0-7-8-----7-8-----------7-8-------7-8---------|
|---------------------------------7p0-----0-7p0-7p0-----0-7p0-------------|
|-------------------------------------------------------------------------|
|-------------------------------------------------------------------------|
|-------------------------------------------------------------------------|

|-------------------------------------------------------------|
|-----7-8-----------7-8-------7-8-----7-8-7---8----787--353~--|
|-7p5-----5-7-5-7-5-----5-7-5-------7-------7-----------------|
|---------------------------------9-------------9-------------|
|-------------------------------------------------------------|
|-------------------------------------------------------------|

VERSE 01

Guitar 01 -- Rythm
|----------------------------------------------------------------------------|
|----------------------------------------------------------------------------|
|----------------------------------------------------------------------------|
|-2-2-2----2-2-2------5-5-5----5-5-5------2-2-2----2-2-2----5-5-5----5-5-5---|
|-2-2-2----2-2-2------5-5-5----5-5-5------2-2-2----2-2-2----5-5-5----5-5-5---|
|-0-0-0----0-0-0------3-3-3----3-3-3------0-2-2----0-0-0----3-3-3----3-5-3---|

|---------------------------------------------------------------|
|---------------------------------------------------------------|
|---------------------------------------------------------------|  [x2]
|-2-2-2----2-2-2----------------5-5-5----5-5-5------------------|
|-2-2-2----2-2-2------2---2-3---5-5-5----5-5-5------5-3-2-------|
|-0-0-0----0-0-0--0-0---0-------3-3-3----3-3-3--3-3-------3-----|
                  . .   .                       . .  

CHORUS

Guitar 01 -- Rythm
|------------------------------------------------------------------------|
|------------------------------------------------------------------------|
|------------------------------------------------------------------------|
|-2-2-2-2-2-2-2-2-2-2-2--------------5-5-5-5-5-5-5-5-5-5-5---------------|
|-2-2-2-2-2-2-2-2-2-2-2-----2---2-3--5-5-5-5-5-5-5-5-5-5-5-----5-3-2-----|
|-0-0-0-0-0-0-0-0-0-0-0-0-0---0------3-3-3-3-3-3-3-3-3-3-3-3-3-------3---|
        .     .   .     . .   .            .     .   .     . .

|------------------------------------------------------------------------|
|------------------------------------------------------------------------|
|-5-5-5-5-5-5-5-5-5-5-5-5-5-5-5-5----------------------------------------|
|-5-5-5-5-5-5-5-5-5-5-5-5-5-5-5-5--2-2-2-2-2-2-2-2-2-2-2-----454-----020-|
|-3-3-3-3-3-3-3-3-3-3-3-3-3-3-3-3--2-2-2-2-2-2-2-2-2-2-2-----------------|
|----------------------------------0-0-0-0-0-0-0-0-0-0-0-0-0-----0-0-----|
        .     .   .     . .   .          .     .   .     . .     . .

Guitar 02 -- Lead
|-------------------------------------------------------------------------|
|-1p0-7-8-0-1p0-1p0-7-8-0-1p0-7-8-----7-8-----------7-8-------7-8---------|
|---------------------------------7p0-----0-7p0-7p0-----0-7p0-------------|
|-------------------------------------------------------------------------|
|-------------------------------------------------------------------------|
|-------------------------------------------------------------------------|

|-------------------------------------------------------------|
|-----7-8-----------7-8-------7-8-----7-8-7---8----787--353~--|
|-7p5-----5-7-5-7-5-----5-7-5-------7-------7-----------------|
|---------------------------------9-------------9-------------|
|-------------------------------------------------------------|
|-------------------------------------------------------------|

VERSE 02

Guitar 01 -- Rythm (Acoustic)
|--------------------------------------------|----------|
|-8--8-8-----8----------8--8-8-10-12---------|----12----|
|-4--4-4---7-4--7-7-7---4--4-4-6--8----------|----8-----| [x2] 
|-5--5-5---4-5--4-4-4---5--5-5-7--9----------|----9-----| [Play end 2nd time]
|----------5----5-5-5------------------------|----------|
|--------------------------------------------|----------|
[ Tab from: http://www.guitaretab.com/m/marie-mai/190206.html ]
Guitar 02 -- Lead
|----------------------------------------------------------------------------|
|----------------------------------------------------------------------------|
|----------------------------------------------------------------------------|
|-2-2-2----2-2-2------5-5-5----5-5-5------2-2-2----2-2-2----5-5-5----5-5-5---|
|-2-2-2----2-2-2------5-5-5----5-5-5------2-2-2----2-2-2----5-5-5----5-5-5---|
|-0-0-0----0-0-0------3-3-3----3-3-3------0-2-2----0-0-0----3-3-3----3-5-3---|

|---------------------------------------------------------------|
|---------------------------------------------------------------|
|---------------------------------------------------------------|  [x2]
|-2-2-2----2-2-2----------------5-5-5----5-5-5------------------|
|-2-2-2----2-2-2------2---2-3---5-5-5----5-5-5------5-3-2-------|
|-0-0-0----0-0-0--0-0---0-------3-3-3----3-3-3--3-3-------3-----|
                  . .   .                       . .  

CHORUS [x2]

Guitar 01 -- Rythm
|------------------------------------------------------------------------|
|------------------------------------------------------------------------|
|------------------------------------------------------------------------|
|-2-2-2-2-2-2-2-2-2-2-2--------------5-5-5-5-5-5-5-5-5-5-5---------------|
|-2-2-2-2-2-2-2-2-2-2-2-----2---2-3--5-5-5-5-5-5-5-5-5-5-5-----5-3-2-----|
|-0-0-0-0-0-0-0-0-0-0-0-0-0---0------3-3-3-3-3-3-3-3-3-3-3-3-3-------3---|
        .     .   .     . .   .            .     .   .     . .

|------------------------------------------------------------------------|
|------------------------------------------------------------------------|
|-5-5-5-5-5-5-5-5-5-5-5-5-5-5-5-5----------------------------------------|
|-5-5-5-5-5-5-5-5-5-5-5-5-5-5-5-5--2-2-2-2-2-2-2-2-2-2-2-----454-----020-|
|-3-3-3-3-3-3-3-3-3-3-3-3-3-3-3-3--2-2-2-2-2-2-2-2-2-2-2-----------------|
|----------------------------------0-0-0-0-0-0-0-0-0-0-0-0-0-----0-0-----|
        .     .   .     . .   .          .     .   .     . .     . .

Guitar 02 -- Lead
|-------------------------------------------------------------------------|
|-1p0-7-8-0-1p0-1p0-7-8-0-1p0-7-8-----7-8-----------7-8-------7-8---------|
|---------------------------------7p0-----0-7p0-7p0-----0-7p0-------------|
|-------------------------------------------------------------------------|
|-------------------------------------------------------------------------|
|-------------------------------------------------------------------------|

|-------------------------------------------------------------|
|-----7-8-----------7-8-------7-8-----7-8-7---8----787--353~--|
|-7p5-----5-7-5-7-5-----5-7-5-------7-------7-----------------|
|---------------------------------9-------------9-------------|
|-------------------------------------------------------------|
|-------------------------------------------------------------|

BRIDGE [Violins Only]

SOLO

Guitar 02 -- Lead 
|-------------------------------------------------------------------------|
|-1p0-7-8-0-1p0-1p0-7-8-0-1p0-7-8-----7-8-----------7-8-------7-8---------|
|---------------------------------7p0-----0-7p0-7p0-----0-7p0-------------|
|-------------------------------------------------------------------------|
|-------------------------------------------------------------------------|
|-------------------------------------------------------------------------|

|-------------------------------------------------------------|
|-----7-8-----------7-8-------7-8-----7-8-7---8----787--353~--|
|-7p5-----5-7-5-7-5-----5-7-5-------7-------7-----------------|
|---------------------------------9-------------9-------------|
|-------------------------------------------------------------|
|-------------------------------------------------------------|

OUTRO [x3]

Guitar 01 -- Rythm
|------------------------------------------------------------------------|
|------------------------------------------------------------------------|
|------------------------------------------------------------------------|
|-2-2-2-2-2-2-2-2-2-2-2--------------5-5-5-5-5-5-5-5-5-5-5---------------|
|-2-2-2-2-2-2-2-2-2-2-2-----2---2-3--5-5-5-5-5-5-5-5-5-5-5-----5-3-2-----|
|-0-0-0-0-0-0-0-0-0-0-0-0-0---0------3-3-3-3-3-3-3-3-3-3-3-3-3-------3---|
        .     .   .     . .   .            .     .   .     . .

|------------------------------------------------------------------------|
|------------------------------------------------------------------------|
|-5-5-5-5-5-5-5-5-5-5-5-5-5-5-5-5----------------------------------------|
|-5-5-5-5-5-5-5-5-5-5-5-5-5-5-5-5--2-2-2-2-2-2-2-2-2-2-2-----454-----020-|
|-3-3-3-3-3-3-3-3-3-3-3-3-3-3-3-3--2-2-2-2-2-2-2-2-2-2-2-----------------|
|----------------------------------0-0-0-0-0-0-0-0-0-0-0-0-0-----0-0-----|
        .     .   .     . .   .          .     .   .     . .     . . 

Guitar 02 -- Lead 
|-------------------------------------------------------------------------|
|-1p0-7-8-0-1p0-1p0-7-8-0-1p0-7-8-----7-8-----------7-8-------7-8---------|
|---------------------------------7p0-----0-7p0-7p0-----0-7p0-------------|
|-------------------------------------------------------------------------|
|-------------------------------------------------------------------------|
|-------------------------------------------------------------------------|

|-------------------------------------------------------------|
|-----7-8-----------7-8-------7-8-----7-8-7---8----787--353~--|
|-7p5-----5-7-5-7-5-----5-7-5-------7-------7-----------------|
|---------------------------------9-------------9-------------|
|-------------------------------------------------------------|
|-------------------------------------------------------------|

[Song Ends With Violins]

LEGEND
. -- Palm Mute
p -- Pull-off
~ -- Vibrato
Related for Rien tab
Rien chords by Marie-mai