Song name
# A B C D E F G H I J K L M N O P Q R S T U V W X Y Z

Marie Rottrova - Lasko Vonis Destem tab

Marie Rottrová - Lásko voníš deštěm

E|--------0-----------0-----|--------0-----------0-----|
B|-----0-----0-----------0--|-----0-----0-----------0--|
G|--8-----------8-----------|--8-----------8-----------|
D|-----------------9--------|-----------------9--------|
A|--------------------------|--------------------------|
E|--------------------------|--------------------------|
 
E|--------0-----------0-----|--------0-----------0-----|
B|-----0-----0-----0-----0--|-----0-----0-----0-----0--|
G|--0-----------0-----------|--0-----------0-----------|
D|--------------------------|--------------------------|
A|--------------------------|--------------------------|
E|--------------------------|--------------------------|

E|--------0-----------0-----|--------0-----------0------|
B|-----0-----0-----------0--|-----0-----0---------------|
G|--8-----------8-----------|--8-----------8------------|
D|-----------------9--------|-----------------9-----12--|
A|--------------------------|---------------------------|
E|--------------------------|---------------------------|

E|---------0-------------0------|---------0-------------0------|
B|------0-----0-----------------|------0-----0-----------------|
G|--11-----------11-------------|--11-----------11-------------|
D|-------------------12-----12--|-------------------12-----11--|
A|------------------------------|------------------------------|
E|------------------------------|------------------------------|

E|---------0-------------0------|---------0-------------0------|
B|------0-----0-----------------|------0-----0-----------------|
G|--12-----------12-------------|--12-----------12-------------|
D|-------------------11-----11--|-------------------11-----10--|
A|------------------------------|------------------------------|
E|------------------------------|------------------------------|

E|--------0------------0-----|--------0-----------0-----|
B|-----0-----0---------------|-----0-----0--------------|
G|--9-----------9------------|--9-----------9-----------|
D|-----------------10-----8--|-----------------8-----9--|
A|---------------------------|--------------------------|
E|---------------------------|--------------------------|

E|--------0-----------0-----|--------0-----------0-----||
B|-----0-----0-----------0--|-----0-----0-----------0--||
G|--8-----------8-----------|--8-----------8-----------||
D|-----------------9--------|-----------------9--------||
A|--------------------------|--------------------------||
E|--------------------------|--------------------------||

   Emi                          H7 
1. Jde déšť a já jdu s ním, jdu městem, jež znám 
   Emi                  H7 
   a hledám stopy včerejší, včerejší, 
   D                             A7 
   jdu stejným směrem jak dřív a vzpomínám 
   C                       H 
   a všechno zdá se krásnější. 
 
2. Ach, lásko, voníš deštěm, tady jsi řek', 
   myslím, že vítr tehdy vál, vítr vál, 
   jsou to už stovky let, kabát jsi svlék' 
   a byl mi velký, ale hřál, krásná lásko. 
 
3. Jak dlouho dlouho ještě půjdu ti vstříc, 
   člověk je velmi krátce živ, krátce živ, 
   má lásko voníš deštěm, jsi z plískanic, 
   však hřeješ stejně jako dřív. 
 
4. I déšť jak dřív je stejný i já já jsem táž 
   jen cosi skříplo v orlojích, v orlojích, 
   byls tu a stále jsi jenom se ukrýváš, 
   jdu deštěm ve tvých šlépějích, ó má lásko. 

http://www.marierottrova.cz/
Tap to rate this tab
# A B C D E F G H I J K L M N O P Q R S T U V W X Y Z