Song name
# A B C D E F G H I J K L M N O P Q R S T U V W X Y Z

Marika Hackman - You Come Down tab

I know the first part of the tab, haven't quite worked out the second bit yet..

Tabbed by: katiefola

Tuning: capo 8


INTRO
e|----0---------0--------0--------2--------0--------0--------2--2--2----------------|
B|-------0---------0--------0--------0--------0--------0----------------------------|
G|----------0---------0--------0--------0--------0--------0-------------------------|
D|----2---------2--------2--------0--------2--------2--------0--0--0----------------|
A|----------------------------------------------------------------------------------|
E|----------------------------------------------------------------------------------|


e|----0---------0--------0--------2--------0--------0--------2--2--2----------------|
B|-------0---------0--------0--------0--------0--------0----------------------------|
G|----------0---------0--------0--------0--------0--------0-------------------------|
D|----2---------2--------2--------0--------2--------2--------0--0--0----------------|
A|----------------------------------------------------------------------------------|
E|----------------------------------------------------------------------------------|

VERSE
e|---0---------0--------2--------2--------0--------0--------2--------0------------|
B|------0---------0--------0--------0--------0--------0--------0--------0---------|
G|---------0---------0--------0--------0--------0--------0--------0--------0------|
D|---2---------2--------0--------0--------2--------2--------0--------2------------|
A|------------------------------------------------------------------------- ------|
E|--------------------------------------------------------------------------------|

e|---0---------0--------2--------2--------0--------0--------2--------0--------2-2-2----|
B|------0---------0--------0--------0--------0--------0--------0--------0--------------|
G|---------0---------0--------0--------0--------0--------0--------0--------0-----------|
D|---2---------2--------0--------0--------2--------2--------0--------2--------0-0-0----|
A|-------------------------------------------------------------------------------------|
E|-------------------------------------------------------------------------------------|

e|---0---------0--------2--------2--------0--------0--------2--------0------------|
B|------0---------0--------0--------0--------0--------0--------0--------0---------|
G|---------0---------0--------0--------0--------0--------0--------0--------0------|
D|---2---------2--------0--------0--------2--------2--------0--------2------------|
A|------------------------------------------------------------------------- ------|
E|--------------------------------------------------------------------------------|

e|---0---------0--------2--------2--------0--------0--------2--------0--------2-2-2----|
B|------0---------0--------0--------0--------0--------0--------0--------0--------------|
G|---------0---------0--------0--------0--------0--------0--------0--------0-----------|
D|---2---------2--------0--------0--------2--------2--------0--------2--------0-0-0----|
A|-------------------------------------------------------------------------------------|
E|-------------------------------------------------------------------------------------|


Thats as far as I've worked out up to so far :)
Tap to rate this tab
# A B C D E F G H I J K L M N O P Q R S T U V W X Y Z