Song name
# A B C D E F G H I J K L M N O P Q R S T U V W X Y Z

Marika Hackman - Retina Television Acoustic tab

From the acoustic Northeast tunnel version of the song
http://www.youtube.com/watch?v=FU0aa5hDWMA

legend

x - slap the guitar. keep the beat.
h - hammer-on
p - pull-off

CAPO 1

intro
          
E------------------------------------------------------------------|
B-------0-----0---------0---------------0-----0---------0----------|
G-------0-----2---------0---------------0-----0h2-------0----------|
D-------0-----0---------2---------------0-----0---------2----------|
A------------------------------------------------------------------|
E-0-2-3---x-2-----x-2-0---x-------x-0-3---x-2-----x-2-0---x-------x|

E----------------------------------------------------------------|
B-----0---0---0-------0---------------0-------0-------0----------|
G-----0---0---2-------0---------------0-------2-------0----------|
D-----0---0---0-------2---------------0-------0-------2----------|
A----------------------------------------------------------------|
E-0-3---x-3-2---x-2-0---x-------x-0-3---x-3-2---x-2-0---x-------x|

    Pupils as deep as wells        Letting the world pour in


E--------------------------------------------------------------------------------|
B-----0-------0-------0---------------0-------0-------0--------------------------|
G-----0-------2-------0---------------0-------2-------0--------------------------|
D-----0-------0-------2---------------0-------0-------2--------------------------|
A--------------------------------------------------------------------------------|
E-0-3---x-3-2---x-2-0---x-------x-0-3---x-3-2---x-2-0---x-------x-------x-------x|

   Save it for when you're bored   Retina television.


E----------------------------------------------------------------|
B-----0-------0-------0---------------0---0---0-------0----------|
G-----0-------2-------0---------------0---0---2-------0----------|
D-----0-------0-------2---------------0---0---0-------2----------|
A----------------------------------------------------------------|
E---3---x-3-2---x-2-0---x-------x-0-3---x-3-2---x-2-0---x-------x|

    Pupils as black as crows       Soaking up all the light


E----------------------------------------------------------------|
B-----0-------0-------0---------------0-------0-------0----------|
G-----0-------2-------0---------------0-------2-------0----------|
D-----0-------0-------2---------------0-------0-------2----------|
A----------------------------------------------------------------|
E-0-3---x-3-2---x-2-0---x-------x-0-3---x-3-2---x-2-0---x-------x|

   Burning when it gets dark       Torches when it is dark.


E--------------------------------------------------------|
B---1---------1p0----------------------------------------|
G---0---------0-----0---------0--------------------------|  X2
D---2---------2-----0---------2--------------------------|
A---3---------3------------------------------------------|
E-------x-------x---3---x-3-0---x-------x-------x-------x|

Fall in the morning, I fall in the morning
A woooooaaaaahhooo, a wooooaaahooooorning


E----------------------------------------------------------------|
B-----0-------0-------0---------------0-------0-------0----------|
G-----0-------2-------0---------------0-------2-------0----------|
D-----0-------0-------2---------------0-------0-------2----------|
A----------------------------------------------------------------|
E---3---x-3-2---x-2-0---x-------x-0-3---x-3-2---x-2-0---x-------x|

To the spider that's hanging down  Pick them off one by one


E----------------------------------------------------------------|
B-----0-------0-------0---------------0-------0-------0----------|
G-----0-------2-------0---------------0-------2-------0----------|
D-----0-------0-------2---------------0-------0-------2----------|
A----------------------------------------------------------------|
E---3---x-3-2---x-2-0---x-------x-0-3---x-3-2---x-2-0---x-------x|

    You do not want to help.       You did not mean to help.


E--------------------------------------------------------|
B---1---------1p0----------------------------------------|
G---0---------0-----0---------0--------------------------|  X2
D---2---------2-----0---------2--------------------------|
A---3---------3-----2---------2--------------------------|
E-------x-------x---3---x-3-0---x-------x-------x-------x|

By the look on your face, the look on your face
The look on your face, the look on your face


E----------------------------------------|
B---1---------1p0------------------------|
G---0---------0---0-0---------0----------|  
D---2---------2-----0---------2----------|
A---3---------3-----2---------2----------|
E-------x-------x---3---x-3-0---x-------x|

And I've fallen from grace, I've fallen for grace,


E-------------------0-------------------------------0---------0--|
B-----1-------------1-----------------1-------------1---------1p0|
G-----2-------------0---------0-------2-------------0---------0--|  
D-----3-----------------------0-------3--------------------------|
A-------------------3---------2---------------------3---------3--|
E-0-1---x-------x-------x-0-3---x-0-1---x-------x-------x-------x|

Hold me in your arms and tell me I'm ok, 


E----------------------------------------|
B----------------------------------------|
G---0---------0--------------------------|  
D---0---------2--------------------------|
A---2---------2--------------------------|
E---3---x-3-0---x-------x-------x-------x|

ok


E----------------------------------------------------------------|
B---0-------0-------0---------------0-------0---------0----------|
G---0-------2-------0---------------0-------2---------0----------|
D---0-------0-------2---------------0-------0---------2----------|
A----------------------------------------------------------------|
E---3---x-3-2---x---0---x-------x---3---x-3-2---x-2-0---x-------x|

    Pupils as deep as wells         Letting the world pour in


E----------------------------------------------------------------|
B-----0-------0-------0---------------0-------0-------0----------|
G-----0-------2-------0---------------0-------2-------0----------|
D-----0-------0-------2---------------0-------0-------2----------|
A----------------------------------------------------------------|
E-0-3---x-3-2---x-2-0---x-------x-0-3---x-3-2---x-2-0---x-----x-x|

    Save it for when you're bored.  Retina television.

THE END

ty
Tap to rate this tab
# A B C D E F G H I J K L M N O P Q R S T U V W X Y Z