Song name
# A B C D E F G H I J K L M N O P Q R S T U V W X Y Z

Marillion - Splintering Heart tab

#----------------------------------PLEASE NOTE---------------------------------#
#This file is the author's own work and represents their interpretation of the #
#song. You may only use this file for private study, scholarship, or research. #
#------------------------------------------------------------------------------#

Marillion - Splintering Heart
=============================

Tabbed by Mike Cannon (smilock@hotmail.com)

Tab Explanation
===============

s	Slide
h	Hammer-on
p	Pull-off
T	Tap
B	Bend the note to the fret after the B
R	Release back to the originally bent note
A.H.	Artificial Harmonic
m	Palm Muted
//	Trem Pick (Pick as fast as possible)

Guitar 1 - Disorted Electric
Guitar 2 - Clean Electric
Guitar 3 - Slightly Distorted Electric (w/Slow Attack)
==============================

Verse 1
=======
There's a hot hard hurt
Burning under her skin 
And it pricks her like thorns 
And it's needles and pins 
And it twists in her body
And I know what it is 
And I'm paying in pain 
But it's the cost of the high 
'Till the weight of the secret 
And the weight of the lie 
Makes my heart want to burst 
Feel the ache as time goes by 
Getting better and worse 
Getting better and worse 
And there's a screw that I tighten 
As I dream of the kiss 
And it twists and it cuts me 
And you know what it is?

Bridge 1
======== 
It's a fragment of love 
From a splintering heart
And it tears her apart
But not as much as this 

Guitar Solo (Gtr. 1)
===========
		      m m m m m m m
e|-----------------------------------------|
B|-10h11-10-----------------------10-10h11-|
G|----------10~-5-7-3----------------------|
D|--------------------5-3------------------|
A|------------------------5-3--------------|
E|----------------------------5-3----------|

e|-----------------------------------------|
B|-10-10h11-13~-11-13b15r13-13----------11-|
G|-----------------------------10-10s12----|
D|-----------------------------------------|
A|-----------------------------------------|
E|-----------------------------------------|

e|-------10-------10-10-10-------10-10-------|
B|-13b15----13b15----------13b15-------13b15-|
G|-------------------------------------------|
D|-------------------------------------------|
A|-------------------------------------------|
E|-------------------------------------------|

e|-10-13-13b15-13b15-15b18-15b18-18b21-18b21-|
B|-------------------------------------------|
G|-------------------------------------------|
D|-------------------------------------------|
A|-------------------------------------------|
E|-------------------------------------------|

e|-18b21r18s20-20b22~-----|
B|--------------------10~-|
G|------------------------|
D|------------------------|
A|------------------------|
E|------------------------|

Verse 2 (Gtr. 2)
=======
e|-------3-----------3-------2-0-----2-0---|
B|-----1---1-------1---1---------1-------1-|
G|---2-------2---2-------2---------2-------|
D|-----------------------------------------|
A|-0-----------0-----------0---------------|
E|-----------------------------------------|
So you save up your tears 
For the moments alone 
'Till the splinters you gather 
Leave you glass-hard and numb

Bridge 2 (Gtr. 2 - Picks notes based around the chords)
========
Chord Progression:
|Gm|Eb|Dm|Cm|

And the same sun is shining 
On the old and the young
On the saints and the sinners 
On the weak and the strong

Guitar Solo (Gtr. 3)
===========

e|-10~------------------------------------|
B|-----10b11r10---------------------10-11-|
G|--------------12~----------10-12~-------|
D|------------------10-12-8~--------------|
A|----------------------------------------|
E|----------------------------------------|

e|----10~-13----13-15~-|
B|-13--------13--------|
G|---------------------|
D|---------------------|
A|---------------------|
E|---------------------|

 (Gtr. 1)

e|-13----13----13----13b15-13b15-13b15-16b18-16b18-|
B|-14b15-14b15-14b15-------------------------------|
G|-------------------------------------------------|
D|-------------------------------------------------|
A|-------------------------------------------------|
E|-------------------------------------------------|

		Hold Bend
e|-18b20-20b22-20b22-22-22-22----------------------|
B|-------------------------------3~-6-6s1----------|
G|-------------------------------3~-------3-3~-0---|
D|-----------------------------------------------3-|
A|-------------------------------------------------|
E|----------------------------3~-------------------|

e|-------------------------------------15-17b19r17-|
B|-------11----11-13-15-13-15s18b20r18-------------|
G|-0-s12----12-------------------------------------|
D|-------------------------------------------------|
A|-------------------------------------------------|
E|-------------------------------------------------|

	*
e|-13-13h15~-------------------------5------------|
B|---------------------------------6---6----------|
G|-----------0h3-5b7r5p3-3~----5s7-------5--------|
D|--------------------------5~-------------8-7-7~-|
A|------------------------------------------------|
E|------------------------------------------------|

e|-------------------15--------------------3-------|
B|----------3~----------18-15-18b20~---------------|
G|-3s2------3~-17b19-----------------3-5b7---5p3-5-|
D|-----3-5~----------------------------------------|
A|-------------------------------------------------|
E|-------------------------------------------------|

e|-----------8p5------13-----------------13--------|
B|---------6-----6h8~----11p10-11h13-13~----13b15~-|
G|-3~-s5h7-----------------------------------------|
D|-------------------------------------------------|
A|-------------------------------------------------|
E|-------------------------------------------------|

e|--------------13-------------18b20-18b20~-20b22-|
B|-13b15~-13s15----15b17r15p13--------------------|
G|------------------------------------------------|
D|------------------------------------------------|
A|------------------------------------------------|
E|------------------------------------------------|

e|-20b22~-----------3------------------3----------|
B|-------------------------------------------6~~--|
G|--------3~----5b7---7r5p3-5-3~-2s5b7---5-5------|
D|-----------5~-----------------------------------|
A|------------------------------------------------|
E|------------------------------------------------|

*h comes around this point

And there's a burning and freezing 
And a cross for a kiss 
So she learns to stop dreaming 
And you know how it is 

With these fragments of love 
And this splintering heart 
With the fragments 
And this splintering heart 

http://www.marillionmusic.co.uk
Tap to rate this tab
 
# A B C D E F G H I J K L M N O P Q R S T U V W X Y Z