Song name
# A B C D E F G H I J K L M N O P Q R S T U V W X Y Z

Marillion - Berlin tab

This is my TAB for the first three verses of Marillion's excellent Berlin track from the 
Seasons End album.
It's my first posted TAB and I know it's not accurate. It's what I've come up with to 
play this song.

There are simple variations on the three man parts that I sometime use and the remaining 
part of the song I play mostly with chords and will update when I get the chance.

e|---------------------------------|
B|---------------------------------|
G|------3----2------------2--------|
D|----0----0-----0-3---3------0h3--| x4
A|---------------------------------|
E|--3----3-----3-----3------3------|
  The mascara'd blonde......
  And the shadows of men....

e|---------------------------------|
B|------4-----3-----------3--------|
G|----0-----0-----0-3---3-----0h3--|
D|---------------------------------| x4
A|--3-----3-----3-----3-----3------|
E|---------------------------------|
  Black leather crackles.....
  But she wake up without them...

e|------1-----0-----------0--------|
B|------------------1---------1----|
G|----2-----2-----2-----2-------2--|
D|--0-----0-----0-----0-----0------| x4
A|---------------------------------|
E|---------------------------------|
   [Saxophone section]

e|---------------------------------|
B|---------------------------------|
G|------3----2------------2--------|
D|----0----0-----0-3---3------0h3--| x4
A|---------------------------------|
E|--3----3-----3-----3------3------|
  The mascara'd blonde......

e|---------------------------------|
B|------4-----3-----------3--------|
G|----0-----0-----0-3---3-----0h3--|
D|---------------------------------| x4
A|--3-----3-----3-----3-----3------|
E|---------------------------------|
  Black leather crackles.....

e|------1-----0-----------0--------|
B|------------------1---------1----|
G|----2-----2-----2-----2-------2--|
D|--0-----0-----0-----0-----0------| x4
A|---------------------------------|
E|---------------------------------|
Tap to rate this tab
 
# A B C D E F G H I J K L M N O P Q R S T U V W X Y Z