Song name
# A B C D E F G H I J K L M N O P Q R S T U V W X Y Z

Marillion - Map Of The World tab

                                          Artist - Marillion
                                         ********************
                                        Song - Map Of The World
                                       *************************
                                         Album - Anoraknophobia
                                        ************************
                                          Tabbed By - Ayreon77
                                         **********************



INTRO - A E A E A E A
******  G#m E B

        A E  A E D

------------------------------------------------
VERSE 1
********
E                          D      A                           E      D  E
Watching the people on the street today she couldn't help but smile
                     D       E      B
Watchin' the town go walking by all shaded eyes and alibis
E                             D    A                   E         D  E
Strange how much pain you can hide away beneath a well-cut suit
A           E                   
This is the day she walks away


------------------------------------------------
BRIDGE
*******
B                       G              G#m
  And the lights of the city pushin' a good time
A              B
Asking her out tonight
          G                      E
But she's saving her money for a better life


------------------------------------------------
CHORUS
*******
                       A      E
She's got a map of the world
D         E      A     E
Pinned up on her wall
A           E          A      E
She's got a map of the world
      A            E      A   E
She's gonna go and see it all
D
   She's gonna see it all

------------------------------------------------
E  D E A E  D
------------------------------------------------

VERSE 2
********
A           E             A      E
Watchin the people on the street today
       A      E     D  E
Such a lonely sight
A                E         D         E
'Swore she could see their dreams go by
    A        E         D       A
All cars and stars and buy buy buy
          E     D               A
Runnin on empty Runnin to stand still
                      E
No time for their own lives
A            E           D      E
Sleepwalking through the danger signs


------------------------------------------------
BRIDGE
*******
B                       G
  And it feels a little scary
         G#m
A little runaway
A             F#        B
Letting go of all she's done
                      G                  G#m
And the lights of the city, well they're all singin'
A           E     B
Buy some of this, cmon
                    G
But when you lie to yourself
           G#m
You lie to everyone


------------------------------------------------
CHORUS
*******
------------------------------------------------

03:11
GUITAR SOLO
************  
 F#            D      E             F#                   A      E        F#
[--------------------|---------s------s------|---------|-------------h------]
[--s-----------------|----12-12\14-14-\17----|----12---|------------9-10----]
[-9\11-11-11-----s---|-11-----------------13-|-11------|-11--------------11-]
[-------------7-9\11-|-----------------------|-------9-|----11----9---------]
[--------------------|-----------------------|---------|-------12-----------]
[--------------------|-----------------------|---------|--------------------]

          D         E              F#               A              E
                   h     p
[----s---------|-16-17-17-16----s-----------------|-------------------------]
[-14-\19-19-19-|--------------17\19-19------s-----|17-17--------------------]
[--------------|-----------------------18-16\14---|--------s--------s------s]
[--------------|--------------------------------16|------19\18-14-14\16-16-\]
[--------------|----------------------------------|-------------------------]
[--------------|----------------------------------|-------------------------]

  F#                       D          E  
03:29
[----------14-|-------14-|-------14-|--------b----]
[-14-14-17----|-14-17----|-14-17----|-14-17-17-17-]
[-------------|----------|----------|-------------]
[-------------|----------|----------|-------------]
[-------------|----------|----------|-------------]
[-------------|----------|----------|-------------]
   
 F#                     D           E           F#
                                      low
[----------|----------|-----------------------|----------14-|-------14-]
[----14-17-|----14-17-|----14---------1717-14-|----14-17----|-14-17----]
[----------|----------|------------br---------|-------------|----------]
[-16-------|-16-------|-16----16--18----------|-16----------|----------]
[----------|----------|-----------------------|-------------|----------]
[----------|----------|-----------------------|-------------|----------]

 A           E
[-------14-|-----b-]
[-14-17----|-14-17-]
[----------|-------]
[----------|-------]
[----------|-------]
[----------|-------]


------------------------------------------------
BRIDGE
*******
B                     G
She'll empty the sand from her shoes
   E
In Paradise
A        F#         B
Sail out across the bay
             G
She'll dance under an island sky
E
Until the break of day


------------------------------------------------
CHORUS
*******
                       A      E
She's got a map of the world
D         E      A     E
Pinned up on her wall
A           E         A      E       
It's such a beautiful world
A              E   A   E  
Glistening and magical
D            E          A     E
 She's got a map of the world
D       E           A     E
Shining away in her mind
A         E      A    E
Colouring-in her life
A       E           A     E
This is the day she walks
D     E
She's gonna see it all
A           E          D   E
She's gonna breathe it all
A           E          D   E
She's gonna breathe it all
A            E   D    E
Paris London New York
A     E            D   E   
She's gonna see it all
B
She'ssssss

A


A Cool Track. Enjoy..........
Tap to rate this tab
 
# A B C D E F G H I J K L M N O P Q R S T U V W X Y Z