Song name
# A B C D E F G H I J K L M N O P Q R S T U V W X Y Z

Marillion - Warm Wet Circles tab

#----------------------------------PLEASE NOTE---------------------------------#
#This file is the author's own work and represents their interpretation of the #
#song. You may only use this file for private study, scholarship, or research. #
#------------------------------------------------------------------------------##


WARM WET CIRCLES 
   by MARILLION
      From the album CLUTCHING AT STRAWS

Transcribed by GNOLIVOS

I've seen this song transcribed a couple of times with capo on 6th fret.
Mr Rothery plays this with capo on 2nd fret, and completely different fingering 
than what I've seen tabbed.  So I took the time to lay it all out for the purists.

This is the correct way of playing it as per Rothery's live videos.  
Capo on 2nd fret!

The following Fingering diagrams will help with finger positioning throughout:

FINGERING 1 -- this is how Rothery does it!
|-------|
|---11--| Pinky (slide to 12 and back to 11 as needed).
|---11--| Ring
|---11--| Middle
|-------|
|-------|

FINGERING 2
|-------| (use pinky and index finger to fret high E string notes as needed).
|----9--| Index
|---11--| Ring
|---11--| Middle
|-------|
|-------|

FINGERING 3
|-------|
|---7---| Index
|---8---| Middle
|---9---| Ring
|-------|
|-------|

FINGERING 4
|-------|
|----9--| Index
|---10--| Middle
|---11--| Pinky
|---11--| Ring
|-------|

FINGERING 5
|-------|
|-------| 
|---6---| Index
|---8---| Middle
|---9---| Ring
|-------|

FINGERING 6
|-------|
|-------| 
|---4---| Index
|---6---| Ring
|-------|
|-------|

FINGERING 7 (like an E chord)
|-------|
|-------| 
|---3---| Index
|---4---| Ring
|---4---| Middle (not played).
|-------|


Tuning: Normal
Tempo ~140bpm
  Gtr I
  Capo 2nd Fret.
  Strat in position 2 (bridge and middle pickups).
  Guitar effects: Clean with rich chorus (Roland JC-120 Jazz Chorus amp). 
  450ms delay, 3 audible repeats or so. Slight reverb.

NOTE:  CAPO ON 2nd FRET!!!  All notes marked as fretted.
All notes showing fret (2) are actually capo fret. (i.e., play open).


[INTRO] x6   (***CAPO ON SECOND FRET THROUGHOUT!***)

(Fing Pos. 1)
|--------------------------------------------------|
|-12-------11-------12--------11-------12-11-------|
|----11-------11-------11--------11----------11----|
|-------11-------11--------11-------11----------11-|
|--------------------------------------------------|
|--------------------------------------------------|

(Fing Pos. 2)
|---------12------11-------9------2---------|
|-9----------9-------9-------2------2-------|
|---11-----------------------------------11-|
|------11------11-------11-----11-----11----|
|-------------------------------------------|
|-------------------------------------------|


[VERSE] x2  (***CAPO ON SECOND FRET THROUGHOUT!***)

(Fing Pos. 3)        (Fing Pos. 4)          (Fing Pos. 5)     (Fing Pos. 3)
|---------2-------|------------2---------|---------2-------|---------2-------|
|---7-------7-----|----9---------9-------|-----------2-----|---7-------7-----|
|-----8-------8---|------10--------10----|---6---------6---|-----8-------8---|
|-------9-------9-|---------11--------11-|-----8---------8-|-------9-------9-|
|-2---------------|-11-------------------|-9-----9---------|-2---------------|
|-----------------|----------------------|-----------------|-----------------|

(Fing Pos. 3)        (Fing Pos. 4)          (Fing Pos. 6)     (Fing Pos. 7)
|---------2-------|------------2---------|---------2-------|---------2-------|
|---7-------7-----|----9---------9-------|---2-------2-----|---2-------2-----|
|-----8-------8---|------10--------10----|-----4-------4---|-----3-------3---| 
|-------9-------9-|---------11--------11-|-------6-------6-|-------4-------4-|
|-2---------------|-11-------------------|-2---------------|-----------------|
|-----------------|----------------------|-----------------|-2---------------|


[GUITAR SOLO]  (transcribed by Mike Cannon)
 Gtr II.  Distortion, Reverb, Delay.

e|---------------------------12-12b14r12-9-|
B|-12~-12b14r12-10~------------------------|
G|------------------11b12r11---------------|
D|-----------------------------------------|
A|-----------------------------------------|
E|-----------------------------------------|

e|-9b10r9----12------------------------------|
B|--------10----10~-12-12b14r12-10~----------|
G|----------------------------------11b12r11-|
D|-------------------------------------------|
A|-------------------------------------------|
E|-------------------------------------------|

  A.H                         //
e|----9h12b14r12s14s17-14h17b19r17-----|
B|---------------------------------12~-|
G|-9~----------------------------------|
D|-------------------------------------|
A|-------------------------------------|
E|-------------------------------------|
                            A.H
e|-----------------------12-12b14r12-9b10r9----|
B|-12b14r12-10~-----------------------------10-|
G|--------------11b12r11-----------------------|
D|---------------------------------------------|
A|---------------------------------------------|
E|---------------------------------------------|
                                        A.H
e|-12-------------------------------12-12b14r12-|
B|----10~-12~-12b14r12-10~----------------------|
G|-------------------------11b12r11-------------|
D|----------------------------------------------|
A|----------------------------------------------|
E|----------------------------------------------|

e|-9b10r9-----|
B|--------10~-|
G|------------|
D|------------|
A|------------|
E|------------|
Tap to rate this tab
# A B C D E F G H I J K L M N O P Q R S T U V W X Y Z