Song name
# A B C D E F G H I J K L M N O P Q R S T U V W X Y Z

Marillion - Tux On tab

                                          Artist - Marillion
                                         ********************
                                            Song - Tux On 
                                           ***************
                                     Album - B'sides Themselves 
                                    ****************************
                                        Tabbed By - Ayreon77
                                       **********************



  Someone Has Already Done A great Job On The Chords. 
      But Did Not Do The Electric & Solo Parts.
            Hope Someone Finds It Useful.


SECTION 1
**********
Mute the strings with the right hand.
01:17
[---------------------|--------------------]
[---------------------|-----------------11-]
[---------8-------h---|---------8----10----]
[-10-8-10---10-8-8-10-|-10-8-10---10-------]
[---------------------|--------------------]
[---------------------|--------------------]X3

on the 4th one he does this
[---------------------|--------------------]
[---------------------|----------b---------]
[---------8-------h---|---------10-8-10----]
[-10-8-10---10-8-8-10-|-10-8-10---------10-]
[---------------------|--------------------]
[---------------------|--------------------] 


Repeat SECTION 1 Above 4 times with the verses.

------------------------------------------------------
02:32
GUITAR SOLO
************
          b       rb
[--b--10-12~~~~-|-12---------------------------|--------------------]
[-13------------|----13--------b--13--b--------|-b----------------s-]
[---------------|-------12-10-12-----12-~~~~~~-|-9---------s----10\-]
[---------------|------------------------------|---10-7--10\12--10\-]
[---------------|------------------------------|--------------------]
[---------------|------------------------------|--------------------]

rake                                b   b         b  b  b  b    
[---------------s----13-|-13-15-13-15--15----s-|-20-20-20-20-]
[---13-10-13--13\15-----|-----------------15-\-|-------------]
[--x--------------------|----------------------|-------------]
[-x---------------------|----------------------|-------------]
[-----------------------|----------------------|-------------]
[-----------------------|----------------------|-------------]
                        
                        slow
   b                    bend
[-20---p--------------h--b--20--b-20--b-20--b-20--b-20--b-20--b-20--b----]
[----18-15-15-18-15-18-20------20----20----20----20----20----20----20----]
[---------------------------------------------------------------------17-]
[------------------------------------------------------------------------]
[------------------------------------------------------------------------]
[------------------------------------------------------------------------]


[------------------------h-----------------------]
[---s---13----------13-13-15--13-----------------]
[-10\14----14-14-14---------------14--12--10-----]
[---------------------------------------------12-]
[------------------------------------------------]
[------------------------------------------------]


------------------------------------------------------
Come in using volume pedal or control knob.
                                          this sounds low
03:34                                                   b      b      b
[-----------------------------|-come------|-vol----s----13-11--13-13--13-13-]
[-low-----------br-----br--11-|--back in--|------11\13----------------------]
[---------h----10-----10------|--with-----|-10------------------------------]
[-10---8-8-10------8----------|-SECTION 1-|---------------------------------]
[-----------------------------|--solo-----|---------------------------------]
[-----------------------------|--continues|---------------------------------]

04:30
   b  b  br       b   br       b                         b 
[-18-18-18-15-18-18--18-15-18-18----|---s---11----11-13-13-----|---h------]
[--------------------------------16-|-11\13----13-----------11-|-11-13-13-]
[-----------------------------------|--------------------------|----------]
[-----------------------------------|--------------------------|----------]
[-----------------------------------|--------------------------|----------]
[-----------------------------------|--------------------------|----------]

                            hold
                            bend
         b                b  |   b   b   b   b   b   b  04:57
[-11-13-13-13-|-15-18-18-18-18--18--18--18--18--18--18-|------------]
[-------------|----------------------------------------|----------b-]
[-------------|----------------------------------------|-8-----8-10-]
[-------------|----------------------------------------|----10------]
[-------------|----------------------------------------|------------]
[-------------|----------------------------------------|------------]

   b                            br
[-20-----p----------------|-11-13----]
[------11-8--b------------|-------11-]
[-----------10---h---8----|----------]
[---------------8-10---10-|----------]
[-------------------------|----------]
[-------------------------|----------]



ENJOY.......
Tap to rate this tab
# A B C D E F G H I J K L M N O P Q R S T U V W X Y Z