Song name
# A B C D E F G H I J K L M N O P Q R S T U V W X Y Z

Marilyn Manson - Little Horn tab

Band      : Marilyn Manson
Song      : Little Horn
Album     : Anti-Christ Superstar
Guitarist : Twiggy Ramirez
Tuning    : Drop D

I know there's already a tab on here for this song which is very similar to this but I 
this is 100% pefect.
This is a really easy song, just listen to the CD for timing.

Intro : 4x

e|-----------------------------------------------------------------------|
b|-----------------------------------------------------------------------|
g|-----------------------------------------------------------------------|
d|-----------------------------------------------------------------------|
a|-----------------------------------------------------------------------|
D|-3-0-0--3-0-0--3-0-0--3-0-0--3-0-5--3-0-0--3-0-0--3-0-0--3-0-0--6-5-3--|

Verse : 2x

e|-----------------------------------------------------------------------|
b|-----------------------------------------------------------------------|
g|-----------------------------------------------------------------------|
d|-3-0-0--3-0-0--3-0-0--3-0-0--3-0-5--3-0-0--3-0-0--3-0-0--3-0-0--6-5-3--|
a|-3-0-0--3-0-0--3-0-0--3-0-0--3-0-5--3-0-0--3-0-0--3-0-0--3-0-0--6-5-3--|
D|-3-0-0--3-0-0--3-0-0--3-0-0--3-0-5--3-0-0--3-0-0--3-0-0--3-0-0--6-5-3--|

Pre - Chorus :
   3 times and then --------------------------|
e|-----------------------|--------------------|
b|-----------------------|--------------------|
g|-----------------------|--------------------|
d|--6--6--6--6--6-5-0-5--|--6--6--6---6--6----|
a|--6--6--6--6--6-5-0-5--|--6--6--6---6--6----|
D|--6--6--6--6--6-5-0-5--|--6--6--6---6--6----|

Chorus : 2x

e|----------------------------------------------------|
b|----------------------------------------------------|
g|----------------------------------------------------|
d|-0---0-6-3--X-5--X-1--3-0-0-3-0-0-3-0-0-3-0-0-3-0-5-|
a|-0---0-6-3--X-5--X-1--3-0-0-3-0-0-3-0-0-3-0-0-3-0-5-|
D|-0---0-6-3--X-5--X-1--3-0-0-3-0-0-3-0-0-3-0-0-3-0-5-|

Pro - Chorus : (During The Little Drum Solo bit.)

e|------------|
b|------------|
g|------------|
d|-5----------|
a|-5----------|
D|-5----------|

Bridge :
      Play this 3 times then --->
e|------------------------------|-----------------------------------|
b|------------------------------|-----------------------------------|
g|------------------------------|-----------------------------------|
d|--6--5--10--10 / 12--0-0-0-0--|-6--5--10--10 / 12--1-1-1-1-0------|
a|--6--5--10--10 / 12--0-0-0-0--|-6--5--10--10 / 12--1-1-1-1-0------|
D|--6--5--10--10 / 12--0-0-0-0--|-6--5--10--10 / 12--1-1-1-1-0------|
pm                     . . . .                       . . . .

Song Structure :

Intro
Verse
Pre Chorus
Chorus
Pro Chorus
Verse
Pre Chorus
Chorus
Pro Chorus
Bridge
Intro
Verse
Chorus
Pro Chorus
Tap to rate this tab
# A B C D E F G H I J K L M N O P Q R S T U V W X Y Z