Song name
# A B C D E F G H I J K L M N O P Q R S T U V W X Y Z

Marilyn Manson - Rock Is Dead tab

Band:     Marilyn Manson
Album:    Mechanical Animals
Song:     Rock Is Dead
Tabber:   Slashdotcom//

Tunning Drop D

.   =  Palm Mute
(#) =  Harmonic
/   =  Slide

Main Riff
|-------------------------------|
|-------------------------------|
|-------------------------------|4X
|-------------------------------|
|-4-4-(3)-4-4-(3)-4-4-(3)-4-4-7-|
|-4-4-(3)-4-4-(3)-4-4-(3)-4-4-7-|
          .       .       .

Riff 1
|---------|
|---------|
|---------|
|-7/10/12-|2X
|-5/-8/10-|
|---------|

Riff 2
|-----------------------------------------------------------------|
|-----------------------------------------------------------------|
|-----------------------------------------------------------------|
|-11--9/119--11--9/119--9--7/97--9--7/97--7--6/76--7--6/76--------|
|--9--7/ 97---9--7/ 97--7--5/75--7--5/75--5--4/54--5--4/54--------|
|-----------------------------------------------------------------|

 ------------------|
 ------------------|
 ------------------|
 -6666666699999999-|
 -6666666699999999-|
 -4444444477777777-|

Main Riff
|-------------------------------|
|-------------------------------|
|-------------------------------|4X
|-------------------------------|
|-4-4-(3)-4-4-(3)-4-4-(3)-4-4-7-|
|-4-4-(3)-4-4-(3)-4-4-(3)-4-4-7-|
          .       .       .

Riff 1
|---------|
|---------|
|---------|
|-7/10/12-|2X
|-5/-8/10-|
|---------|


Riff 2
|-----------------------------------------------------------------|
|-----------------------------------------------------------------|
|-----------------------------------------------------------------|
|-11--9/119--11--9/119--9--7/97--9--7/97--7--6/76--7--6/76--------|
|--9--7/ 97---9--7/ 97--7--5/75--7--5/75--5--4/54--5--4/54--------|
|-----------------------------------------------------------------|

 ------------------|
 ------------------|
 ------------------|
 -6666666699999999-|
 -6666666699999999-|
 -4444444477777777-|

Interlude
|-----------------------|
|-----------------------|
|-----------------------|
|-----------------------|16X
|-(3)---(3)---(3)---(3)-|
|-(3)---(3)---(3)---(3)-|

Main Riff
|-------------------------------|
|-------------------------------|
|-------------------------------|4X
|-------------------------------|
|-4-4-(3)-4-4-(3)-4-4-(3)-4-4-7-|
|-4-4-(3)-4-4-(3)-4-4-(3)-4-4-7-|
          .       .       .

Riff 1
|---------|
|---------|
|---------|
|-7/10/12-|2X
|-5/-8/10-|
|---------|

Riff 2
|-----------------------------------------------------------------|
|-----------------------------------------------------------------|
|-----------------------------------------------------------------|
|-11--9/119--11--9/119--9--7/97--9--7/97--7--6/76--7--6/76--------|
|--9--7/ 97---9--7/ 97--7--5/75--7--5/75--5--4/54--5--4/54--------|
|-----------------------------------------------------------------|

 ------------------|
 ------------------|
 ------------------|
 -6666666699999999-|2X
 -6666666699999999-|
 -4444444477777777-|

Thats it easy as, Give it 5*
Tap to rate this tab
# A B C D E F G H I J K L M N O P Q R S T U V W X Y Z