Song name
# A B C D E F G H I J K L M N O P Q R S T U V W X Y Z

Marilyn Manson - Lunchbox tab

Help us improve GuitareTab! Take a short survey!
Tabbed by: buriedbythemachine
Email:buriedbythemachine@hotmail.com

Tuning:standard

below is the at least 99% correct tab.


intro
e|---------------------------------------------------------------------------
B|---------------------------------------------------------------------------
G|-x-x-x-x-x-x--7/-9------------x-x-x--14------------------------------------
D|-x-x-x-x-x-x--7/-9--x-x-x--5--x-x-x--14------------------------------------
A|-x-x-x-x-x-x--5/-7--x-x-x--5--x-x-x--13------------------------------------
E|--------------------x-x-x--3-----------------------------------------------

e|---------------------------------------------------------------------------
B|---------------------------------------------------------------------------
G|-7/-9------------x-x-x--16-------------------------------------------------
D|-7/-9--x-x-x--5--x-x-x--16-------------------------------------------------
A|-5/-7--x-x-x--5--x-x-x--15-------------------------------------------------
E|-------x-x-x--3------------------------------------------------------------
	repeat all of above except without initial scratches

                             "bring it down"
e|----------------------------|----------------------------------------------
B|----------------------------|----------------------------------------------
G|-7/-9--14---7/-9--16--7/-9--9-------------------12/-14/-12-----------------
D|-7/-9--14---7/-9--16--7/-9--9---------12/-14/-12------------12/-14/-12/-14-
A|-5/-7--13---5/-7--15--5/-7--7----------------------------------------------
E|---------------------------------------------------------------------------

verse	"the big bully..."
e|---------------------------------------------------------------------------
B|---------------------------------------------------------------------------
G|---------------------------------------------------------------------------
D|-12-5-2---repeat this several times until chorus then hold last chord------
A|-12-5-2--------------------------------------------------------------------
E|-10-3-0--------------------------------------------------------------------

chorus	"i wanna grow up..."	play each chord a few times
e|---------------------------------------------------------------------------
B|---------------------------------------------------------------------------
G|-9--12--7------------------------------------------------------------------
D|-9--12--7--2---------------------------------------------------------------
A|-7--10--5--2---------------------------------------------------------------
E|-----------0---------------------------------------------------------------

e|---------------------------------------------------------------------------
B|---------------------------------------------------------------------------
G|-7/-9--14---7/-9--16---7/-9--14---7/-9-------------------------------------
D|-7/-9--14---7/-9--16---7/-9--14---7/-9-------------------------------------
A|-5/-7--12---5/-7--15---5/-7--12---5/ 7-------------------------------------
E|---------------------------------------------------------------------------

play verse and chorus again then...
e|---------------------------------------------------------------------------
B|---------------------------------------------------------------------------
G|---------------------------------------------------------------------------
D|---------------------------------------------------------------------------
A|---7/-5---7-7-7/-5-----7/-5---7-7-7/-5-------------------------------------
E|-0------7----------7-0------7----------7-----------------------------------
	 |   repeat a few times     |
e|---------------------------------------------------------------------------
B|-------15-------------15---------------------------------------------------
G|-9b-------12/-9/ 13b-----12/-9/-13b----------------------------------------
D|---------------------------------------------------------------------------
A|---------------------------------------------------------------------------
E|---------------------------------------------------------------------------

	solo: 
e|---------------------------------------------------------------------------
B|--------------------------------12-14-12-14-14-15--------------------------
G|-----12/14-12/14-12-----12/14-12-----------------12-14-12------12-12/14-12-
D|12/14-------------12/14---------------------------------12-14-12-----------
A|---------------------------------------------------------------------------
E|---------------------------------------------------------------------------
	back to chorus then...
e|---------------------------------------------------------------------------
B|---------------------------------------------------------------------------
G|---------------------------------------------------------------------------
D|-12-5-2---12-5-2-3---12-5-2---12-5-2---------------------------------------
A|-12-5-2---12-5-2-3---12-5-2---12-5-2---------------------------------------
E|-10-3-0---10-3-0-1---10-3-0---10-3-0---------------------------------------


/= slide
x= scratch
b= bend
=============================================================================
Related for Lunchbox tab