Song name
# A B C D E F G H I J K L M N O P Q R S T U V W X Y Z

Marilyn Manson - Saint tab

(s)aint-Marilyn Manson
Tabbed by Manel EML

Tuning D


Intro

|-----------------------------------------------------------------|
|-----------------------------------------------------------------|
|-----------------------------------------------------------------|
|------------------------------------------------------------0--0-|
|--------8--8--8---------8--8--8-----------8--8-----------8-------|
|--0--0-----------0--0------------0--0--0-------0--0---0----------|


Fill

|-----------------------------------------------------------------|
|-----------------------------------------------------------------|
|-----------------------------------------------------------------|
|-----------------------------------------------------------------|
|-----------------------------------------------------------------|
|----0-0-------0-0------------------------------------------------|

Bridge

|-----------------------------------------------------------------|
|-----------------------------------------------------------------|
|-----------------------------------------------------------------|
|--8-8-8-8-10-10-9-9-8----8-8-8-8-6-6-5-7-7-----------------------|
|--8-8-8-8-10-10-9-9-8----8-8-8-8-6-6-5-7-7-----------------------|
|--8-8-8-8-10-10-9-9-8----8-8-8-8-6-6-5-7-7-----------------------|


Chorus

Gtr.1
|-----------------------------------------------------------------|
|-----------------------------------------------------------------|
|-----------------------------------------------------------------|
|--5-5--5-5---5-5-5--5--------------------------------------------|
|--5-5--5-5---5-5-5--5--------------------------------------------|
|--5-5--5-5---5-5-5--5--------------------------------------------|

Gtr.2

|-----------------------------------------------------------------|
|--1/------------------------/18-17--15--14-----------------------|
|-----------------------------------------------------------------|
|-----------------------------------------------------------------|
|-----------------------------------------------------------------|
|-----------------------------------------------------------------|

Bridge
Gtr.1
|-----------------------------------------------------------------|
|-----------------------------------------------------------------|
|-----------------------------------------------------------------|
|--8-8-8-8-10-10-9-9-8----8-8-8-8-6-6-5-7-7-----------------------|
|--8-8-8-8-10-10-9-9-8----8-8-8-8-6-6-5-7-7-----------------------|
|--8-8-8-8-10-10-9-9-8----8-8-8-8-6-6-5-7-7-----------------------|

Gtr.2
|-----------------------------------------------------------------|
|--9-9-9-9-9-9-9-9-9-9--------------------------------------------|
|-----------------------------------------------------------------|
|-----------------------------------------------------------------|
|-----------------------------------------------------------------|
|-----------------------------------------------------------------|


Good, thanks again
Tap to rate this tab
# A B C D E F G H I J K L M N O P Q R S T U V W X Y Z