Song name
# A B C D E F G H I J K L M N O P Q R S T U V W X Y Z

Marilyn Manson - Sick City tab

Song: Sick City
Artist: Marilyn Manson
Written by: Charels Manson
Lyrics by: Charels Manson
Album: From High Way To Hell (The ultimate cover collection)
tabed by: Per "Pogo" Stenberg
fanta98@hotmail.com


Cool song... I'm not 100% of this song...


Intro
"Sick City, yeah!"

------------------------------
------------------------------
------------------------------
-----------------5--5-------5-
-----------------7--7---12--7-
-<12>-<12>/<5>-0----0---0---0-


Verse (Keep play this all the time)
"To make the sky look pretty"

--------------------------------
--------------------------------
--------------------------------
-------------------------555555-
-12-12-12-12-12-12-12-12-777777-
-0--0--0--0--0--0--0--0--000000-


Break
"Walking all alone"

----------
----------
----------
----------
-77777777-
-00070007-


Bridge
"I'm just one thoses reslet peopel"

--------------
--------------
--------------
-999999777777-
-999999777777-
-777777555555-


That is it!  :)
Tap to rate this tab
 
# A B C D E F G H I J K L M N O P Q R S T U V W X Y Z