Song name
# A B C D E F G H I J K L M N O P Q R S T U V W X Y Z

Marilyn Manson - Personal Jesus tab

Help us improve GuitareTab! Take a short survey!
Intro

e|--------------------------------------3-----|
B|------------------------------------5-------|
G|--------------------------------------------|
D|--------------------------------------------|
A|--------------------------------------------|
E|-0000000-0-00000000000-0-00000000-----------|
  | PM |

e|----------------------------------|
B|----------------------------------|
G|----------------------------------|
D|----------------------------------|
A|----------------------------------|
E|-0-3-0-0-0-3-0-0-0-3-0-0-0---3----|

e|---------------------------------|
B|---------------------------------|
G|---------------------------------|
D|---------------------------------|
A|---------------------------------|
E|-0-3-0-0-0-3-0-0-0-3-0-0-0---1---|

e|-------------------------------------------|
B|-------------------------------------------|
G|-------------------------------------------|
D|-2--5--2--2--5--2--2--5--2--2---5----------|
A|-2--5--2--2--5--2--2--5--2--2---5----------|
E|-0--3--0--0--3--0--0--3--0--0---3----------|

e|-------------------------------------------|
B|-------------------------------------------|
G|-------------------------------------------|
D|-2--5--2--2--5--2--2--5--2--2---3----------|
A|-2--5--2--2--5--2--2--5--2--2---3----------|
E|-0--3--0--0--3--0--0--3--0--0---1----------|

                  Celebritarian Corporation  
Related for Personal Jesus tab