Guitaretab - guitar tabs
Song name
# A B C D E F G H I J K L M N O P Q R S T U V W X Y Z

Marilyn Manson - Lest We Forget tab

#----------------------------------PLEASE NOTE----------------------------------#
# This file is the author's own work and represents their interpretation of the #
# song. You may only use this file for private study, scholarship, or research. #
#-------------------------------------------------------------------------------#

                             M A R I L Y N  M A N S 0 N
                             - - - - - - -  - - - - - - 
                             Lest We Forget: The Best Of


Tabbed by Rodrigo "R0D Z0MBIE" Espichan
e-mail: rodzombie_89@hotmail.com

_________________________________________________________________________________
1) The Love Song

Tuning: Drop D tuning (DADGBE)

Main riff : ("Do you love your guns...")

G|-------------------------------|
D|-6-0---0-3-5---0-6-0---0-3-5-3-|
A|-6-0---0-3-5---0-6-0---0-3-5-3-|
D|-6-0---0-3-5---0-6-0---0-3-5-3-|

2nd guitar bit : ("Got love songs in my head...")

G|---|
D|-0-| < let this chord ring for 1 bar
A|-0-|        
D|-0-|

G|---------------|
D|-0---2---3---7-|
A|-0---2---3---7-| < this for the second part of "Got love songs..."
D|-0---2---3---7-|

Clean guitar part : ("She tells me I'm a pretty bullet...")

E|---------------------------------|
B|-3-3-3-3-5-5-5-5-6-6-6-6---------|
G|-------------------------2-2-2-2-|
_________________________________________________________________________________
2) Personal Jesus


Tuning: Drop D

Intro:
-----------------------------------R
-----------------------------------E
---------11----------------11------P till the verse
--4-7-4--11--7-4----4-7-4--11--7-4-E
--4-7-4--9---7-4----4-7-4--9---7-4-A
--4-7-4------7-4----4-7-4------7-4-T

Verse:
-----------------------------------|
-----------------------------------|
---------11----------------11------| it's actually exactly the same as the
--4-7-4--11--7-4----4-7-4--11--7-4-| intro, but I thought i'd put the verse
--4-7-4--9---7-4----4-7-4--9---7-4-| down seperatly anyway
--4-7-4------7-4----4-7-4------7-4-|

Then theres like a little fill later half way through the verse when he sings:
 "Someone who cares"
------------------------------------|
------------------------------------|
--------11--------------------------|
-9-12-9-11-12-9--7--7-7-7--6--6-6-6-|
-9-12-9--9-12-9--7--7-7-7--6--6-6-6-|
-9-12-9----12-9--7--7-7-7--6--6-6-6-|

Then continue playing the verse riff

end of the verse:
------------------------------------|
------------------------------------|
--------11--------------------------|
-9-12-9-11-12-9--7--7-7-7--6--6-6-6-|
-9-12-9--9-12-9--7--7-7-7--6--6-6-6-|
-9-12-9----12-9--7--7-7-7--6--6-6-6-|

Bridge:
"Feeling unknown and you're all alone..."
-----------------------------------------|
-7-----7-----10-----15-----12------14----|
-X-----X-----X-------X------X-------X----|
-4-----4-----7------12------9------11----|
-----------------------------------------|
-----------------------------------------|

Then after he sings
"I'll make you a believer" theres another little fill that guitar2 plays:
--------|
--------|
--11~~~-| just hold the note for
--------| like 2 seconds.
--------|
--------|

While guitar 1 just goes on playing the main riff (intro/verse):


New verse:
"Take second best,put me to the test"
-----------------------------------|
-----------------------------------|
---------11----------------11------|
--4-7-4--11--7-4----4-7-4--11--7-4-|
--4-7-4--9---7-4----4-7-4--9---7-4-|
--4-7-4------7-4----4-7-4------7-4-|

First guitar plays main riff...


Chorus:
"reach out and touch faith"
--------------------------------------|
--------------------------------------|
-----------------11-------------11----|
-6----5----4-7-4-11--7-4--4-7-4-11--7-|
-6----5----4-7-4--9--7-4--4-7-4--9--7-|
-6----5----4-7-4-----7-4--4-7-4-----7-|

 
With Verse Riff:
"Your own personal Jesus..."


then again half way through the verse play:
"someone who cares..."
------------------------------------|
------------------------------------|
--------11--------------------------|
-9-12-9-11-12-9--7--7-7-7--6--6-6-6-|
-9-12-9--9-12-9--7--7-7-7--6--6-6-6-|
-9-12-9----12-9--7--7-7-7--6--6-6-6-|


then carry on playing this with the Verse Riff:
"your own, personal Jesus.."



"Someone to hear your prayers"
-----------------------------------|
-----------------------------------|
---------11----------------11------|
--4-7-4--11--7-4----4-7-4--11--7-4-|
--4-7-4--9---7-4----4-7-4--9---7-4-|
--4-7-4------7-4----4-7-4------7-4-|

Chorus:
"reach out and touch faith"
--------------------------------------|
--------------------------------------|
-----------------11-------------11----|
-6----5----4-7-4-11--7-4--4-7-4-11--7-|
-6----5----4-7-4--9--7-4--4-7-4--9--7-|
-6----5----4-7-4-----7-4--4-7-4-----7-|

then on the drum beat:
---------------R
---------------E
---------------P strum the same as
-###-###-###-X-E drum rhythm
-###-###-###-X-A
-###-###-###-X-T

Guitar 1:
"Feeling unknown..."
--------------------------|
--------------------------|
--------------------------| play quite lightly
--9(8x)-7(8x)-6(8x)-5(8x)-|
--9(8x)-7(8x)-6(8x)-5(8x)-|
--9(8x)-7(8x)-6(8x)-5(8x)-|

Guitar 2:
play this softly in the back round:
---------------|
---------------|
---------------|
-###-###-###-X-|
-###-###-###-X-|
-###-###-###-X-|

Verse:
then play main riff:
-----------------------------------|
-----------------------------------|
---------11----------------11------|
--4-7-4--11--7-4----4-7-4--11--7-4-|
--4-7-4--9---7-4----4-7-4--9---7-4-|
--4-7-4------7-4----4-7-4------7-4-|

------------------------------------|
------------------------------------|
--------11--------------------------|
-9-12-9-11-12-9--7--7-7-7--6--6-6-6-|
-9-12-9--9-12-9--7--7-7-7--6--6-6-6-|
-9-12-9----12-9--7--7-7-7--6--6-6-6-|

Guitar 2:
--------|
--------|
--11~~~-|
--------|
--------|

Chorus:
--------------------------------------|
--------------------------------------|
-----------------11-------------11----|
-6----5----4-7-4-11--7-4--4-7-4-11--7-|
-6----5----4-7-4--9--7-4--4-7-4--9--7-|
-6----5----4-7-4-----7-4--4-7-4-----7-|
_______________________________________________________________________
3) mOBSCENE

Tuning:
d------
a------
d------
g------
b------
e------

Intro and chorus riff:
|---------------------------------|
|---------------------------------|
|---------------------------------|
|-------0-0---2~------0-----------|
|-2-2-2-0-0-2-2~--2-2-0-2--0-2-0--|
|-2-2-2-----2-----2-2---2--0-2-0--|

The verse are just struming muted strings

"We are the things and shapes to come..."

"Pain..."
|-13~~~-12~~~--------------------------|
|--------------------------------------|
|--------------------------------------|
|--------------------------------------|
|--------------------------------------|
|--------------------------------------|

Chorus (play the intro riff)

Chorus (continued):
|--------------------------------------------|
|--------------------------------------------|
|--------------------------------------------| x3 
|--7-7-7-7-7-7-7-7--10-10-10-10-10-10-10-10--|
|--7-7-7-7-7-7-7-7--10-10-10-10-10-10-10-10--|
|--7-7-7-7-7-7-7-7--10-10-10-10-10-10-10-10--|

|-----------------------------------|
|-----------------------------------|
|-----------------------------------|
|--8-8-8-8-8-8-8-8-8-8-8-8-8-8-8-8--|
|--8-8-8-8-8-8-8-8-8-8-8-8-8-8-8-8--|
|--8-8-8-8-8-8-8-8-8-8-8-8-8-8-8-8--|

"be  obscene..."
|-----------------------------------|
|-----------------------------------|
|-----------------------------------|
|-0-0-0-0-0-0-2-0-play-4-times------|
|-0-0-0-0-0-0-2-0-------------------|
|-0-0-0-0-0-0-2-0-------------------|
  . . . . .

Verse
Chorus  
Bridge
Chorus (continued)
Chorus 
End
_______________________________________________________________________
4) The Fight Song

Intro And Verse Riff 
E---------11-----------------------------------------------------------|
B----------------------------------------------------------------------|
G--------------------------------0-0-----------------------------------|
D-----11----------11----14--14---0-0--11-11-------11----14----14---14--|
A------9-----------9----12--12---0-0---9--9--------9----12----12---12--|
E------------0--0----------------------------0--0----------------------|
Straight into 
Bridge Riff Repeat X3 
E----------------------------------------------------------------------------------|
B----------------------------------------------------------------------------------|
G-------------------------- 2--2--2------------------------------------------------| 
D-----4--4----2--2----4-----2--2--2------------------------------------------------| 
A-----4--4----2--2----4-----0--0--0------------------------------------------------|
E-----2--2----0--0----2------------------------------------------------------------|
On the Fourth Time Doing the Bridge Riff Its Slightly Different 
E----------------------------| 
B----------------------------|
G----------------------------|
D----4--4--2--2--4--2--2--2--|
A----4--4--2--2--4--2--2--2--| 
E----2--2--0--0--2--0--0--0--|
Into Verse Riff 
Then into Brige 

Chorus 
E--------------------------------------------------------------------------------------- 
B--------------------------------------------------------------------------------------- 
G-------------------------------------------------------------------------------------- 
D----9--9--9--9--9--9--9--9--7--7--7--7--7--7--7--7--9--9--9--9--9--9--9--9------------ 
A----9--9--9--9--9--9--9--9--7--7--7--7--7--7--7--7--9--9--9--9--9--9--9--9----- 
E----7--7--7--7--7--7--7--7--5--5--5--5--5--5--5--5--7--7--7--7--7--7--7--7--------- 

E------------------------------------------------------------------------|
B------------------------------------------------------------------------|
G------------------------------------------------------------------------|
D--7--7--7--7--7--7--7--7--12--12--12--12--12--12--12--12--9--9--9--9----|
A--7--7--7--7--7--7--7--7--12--12--12--12--12--12--12--12--9--9--9--9----| 
E--5--5--5--5--5--5--5--5--10--10--10--10--10--10--10--10--7--7--7--7----| 

E----------------------------------------------------------------| 
B----------------------------------------------------------------| 
G----------------------------------------------------------------|
D----9--9--9--9--7--7--7--7--7--7--7--7---2--2--2--2--3--3--3--3-|
A----9--9--9--9--7--7--7--7--7--7--7--7---2--2--2--2--3--3--3--3-| 
E----7--7--7--7--5--5--5--5--5--5--5--5---0--0--0--0--1--1--1--1-|

Into bridge riff 
Into Verse 
Into chorus 
Bridge 

Interlude Repeat X4 
E------------------------------------------------|
B------------------------------------------------|
G---5--5--5--5--5--5--5--7-----------------------|
D---5--5--5--5--5--5--5--7--7--7--7--7--7--7--7--| 
A---3--3--3--3--3--3--3--5--7--7--7--7--7--7--7--| 
E---------------------------5--5--5--5--5--5--5--|

Bridge Riff X2 
_______________________________________________________________________
5) Tainted Love

Tuning: D

Main riff/verse:

3|------x--3--/8-8-8-8-\-3-3-/-5-5--|
4|-3-3--x---------------------------| repeat several
5|-3-3--x--1--/6-6-6-6-\-1-1-/-3-3--|     times.
6|-1-1--x---------------------------|

Chorus:

3|---------------------|-3-3-x-x-x-3-3-x-x-x-|
4|-3-3-x-x-x-3-3-x-x-x-|-3-3-x-x-x-3-3-x-x-x-|
5|-3-3-x-x-x-3-3-x-x-x-|-1-1-x-x-x-1-1-x-x-x-|
6|-1-1-x-x-x-1-1-x-x-x-|---------------------|
'once I ran to you......now I run from you...'

3|-8-8-x-x-x-8-8-x-x-x-|-5-5-x-x-x-5-5-x-x-x-|
4|-8-8-x-x-x-8-8-x-x-x-|-5-5-x-x-x-5-5-x-x-x-|
5|-6-6-x-x-x-6-6-x-x-x-|-3-3-x-x-x-3-3-x-x-x-|
6|---------------------|---------------------|
'this tainted love.....give you all a boy could...'

3|-5-5-x-x-x-5-5-x-x-x-|-5-5-x-x-x-5-5-x-x-x-|
4|-5-5-x-x-x-5-5-x-x-x-|-5-5-x-x-x-5-5-x-x-x-|
5|-3-3-x-x-x-3-3-x-x-x-|-3-3-x-x-x-3-3-x-x-x-|
6|---------------------|---------------------|
'take these tears...'

Interlude riff:

3|---------1-1------| this is only
4|-----1-1-----1-3--| just audible
5|-3-3--------------| in the background.

repeat all the necessary parts.
_______________________________________________________________________
6)The Dope Show


intro
e|-------------------------------------------
b|-5-5-5------5-5-5-----5-5-5-----5-5-5------
g|-7-7-7------7-7-7-----7-7-7-----7-7-7------
d|-----^----------^---------^---------^------
a|-------------------------------------------
e|-------------------------------------------
trem vib ~~~~     ~~~~       ~~~~      ~~~~

e|-------------------------------------------
b|-------------------------------------------
g|-------------------------------------------
d|-x-9-9-9-9-9-9-9-9-12-12-12-12-12-12-12-12-
a|-x-7-7-7-7-7-7-7-7-10-10-10-10-10-10-10-10-
e|-------------------------------------------

e|-------------------------------------------------
b|-------------------------------------------------
g|-------------------------------------------------
d|-------------------------------------------------
a|-12-12-12-12-12-12-12-12-10-10-10-10-10-10-10-10-
e|-10-10-10-10-10-10-10-10--8--8--8--8--8--8--8--8-

e|---------------------------------------
b|---------------------------------------
g|---------------------------------------
d|---------------------------------------
a|-3/7-7-5-5-7-5-5-5/7~-7-5-5-7-5-3-3/7~-
e|---------------------------------------

e|---------- e|----------------------
b|---------- b|----------------------
g|---------- g|----------------------
d|-9-7-5-4-- d|-^---7/9-^---7/9------
a|-7-5-3-2-- a|-7-5-----7-5----------
e|---------- e|----------------------

this one is a little strange.. sounds strange on the cd
but if you watch the VMA Awards you'll understand it
solo       
_________________________________________________________________________
7) This Is The New ####

Intro

E---------------------------
B---------------------------
G---------------------------
D-------------00-00-00------
A-------------00-00-00------
D-00-00-00----00-00-00------

Chorus

E---------------------------------------------
B-####----------------------------------------
G-####----------------------------------------
D-####-7777/10-77/10-77/10-77/10-77/10-777----
A-####-5555/-8-55/-8-55/-8-55/-8-55/-8-555----
D---------------------------------------------
      
E---------------------------
B---------------------------
G---------------------------
D-5/7-5/7-5/7-5/7-5/7-777---
A-3/5-3/5-3/5-3/5-3/5-555---
D---------------------------

E---------------------------
B---------------------------
G---------------------------
D-7777777777777-5/7/5-------
A-5555555555555-3/5/3-------
D---------------------------

Break (Stick you know where you don't care)

E------------------------------------------
B------------------------------------------
G------------------------------------------
D-66666666-66666666-33333333-33333333------
A-66666666-66666666-33333333-33333333------
D-66666666-66666666-33333333-33333333------

A---5----
(Bend up and down randomly)
_______________________________________________________________________
8) Disposable Teens

Intro: (repeat)
E|---------------------------
B|---------------------------
G|7-7-5-7-10-7--7-7-5-7-7-###
D|7-7-5-7-10-7--7-7-5-7-7-###
A|5-5-3-5--8-5--5-5-3-5-5-###
D|---------------------------

Post intro riff:
E|-------------------------------
B|-------------------------------
G|-------------------------------
D|00X-XX0000XXXXXX-00X-XX00003353
A|00X-XX0000XXXXXX-00X-XX00003353
D|00X-XX0000XXXXXX-00X-XX00003353
This should be right.

Intro riff is played while Mansons says "yea yea yea yea yea yea" it is also the chorus riff.

When Manson sings "we're disposable teens" you play the post chorus riff

high riff
E|10/16~~~~~
B|----------
G|----------
D|----------
A|----------
D|----------

"the more that you fear us, the bigger we get"
E|-----------------------------
B|-----------------------------
G|5-5-5-5-5-5-5-5-5-5-5-5-5-6-7
D|5-5-5-5-5-5-5-5-5-5-5-5-5-6-7
A|3-3-3-3-3-3-3-3-3-3-3-3-3-4-5
D|-----------------------------
You might have to play more threes/fives than I put, you'll figure it out.

_______________________________________________________________________
9) Sweet Dreams

e|---------------------------------
b|---------------------------------
g|---------------------------------
d|-----5---6---5-------------------
a|-3-3---3---3---3-----6/8-----5/6-
e|-----------------4-4-----3-3-----

strumm these chords 
e|---------------------
b|---------------------
g|-------5-------------
d|-6--5--5--6--5--6--5-
a|-6--5--3--6--5--6--5-
e|-4--3-----4--3--4--3-

e|----------------
b|----------------
g|-5--------------
d|-5---6--5-------
a|-3---6--5-------
e|-----4--3-------

this is in C aeolian
e|-------------------
b|-------------------
g|-------------------
d|-------^-------^---
a|-------5-------8---
e|-8-6-8---8-5-8-----

solo
e|--------^--------------------------------------
b|-------15--------------------------------------
g|-15-17----17-15-17-----------------------------
d|-------------------15~-------------------------
a|-----------------------15-13-15--^--^--^--^----
e|--------------------------------13-13-13-13----

e|---------------------------------------------------
b|---------------------------------------------------
g|--------------------------------15~15~15~-13-15-13-
d|----------------13-15~-13-15-13--------------------
a|-15-13--^-13-15------------------------------------
e|-------13------------------------------------------
[ Tab from: http://www.guitaretab.com/m/marilyn-manson/139961.html ]
e|-----^-------------
B|-14-16-------------
g|----------15~------
d|-------------------
a|-------------------
e|-------------------

back to this

e|-------------------
b|-------------------
g|-------------------
d|-------^-------^---
a|-------5-------8---
e|-8-6-8---8-5-8-----

then something like this 

e|-----------^------------^---------------
b|----------14-----------16---------------
g|-15-13-15-----15-13-15-----15-13-15--^--
d|------------------------------------13--
a|----------------------------------------
e|----------------------------------------

end

e|----------
b|----------
g|-15--^----
d|----15----
a|-------15-
e|----------
_______________________________________________________________________
10) Lunchbox

e|-------------------------------------------------
b|-------------------------------------------------
g|-------------------------------------------------
d|-x-x-x-7/9-9-x-x-x-12\-x-x-x-14--7/9-9-x-x-x-12\-
a|-x-x-x-5/7-7-x-x-x-10\-x-x-x-12--5/7-7-x-x-x-10\-
e|-x-x-x-------x-x-x-----x-x-x-----------x-x-x-----

e|------------------
b|--------^---------
g|-------12---------
d|-x-x-x-10---------
a|-x-x-x------------
e|-x-x-x------------

e|-------------------------------------
b|-------------------------------------
g|---------------------12h14p12--------
d|-7----------12-14-12----------14-12--
a|-5-5-2-------------------------------
e|---3-0-------------------------------
this D G E pard is pretty much the Whole song... 

e|---------------------------------
b|---------------------------------
g|-*-----*----*--------------------
d|-9----12----7\-------------------
a|-7----10----5\---2-2-2-2-2-2-2---
e|-0---------------0-0-0-0-0-0-0---
* = strum chord 

e|----------------------------------
b|----------------------------------
g|-*-----*-----*--------------------
d|-9----12----12\-------------------
a|-7----10----14\---2-2-2-2-2-2-2---
e|-0----------------0-0-0-0-0-0-0---

d|--------------------------------------
a|-----7-7-5-5---------7-7-5-5-----2----
e|-0-0---------7-7-0-0---------3-3-0----
played after second chorus

Solo is in E pentatonic .... 

e|-----------------------------------^------------------
b|----------------------------------15--^---------------
g|-------------------------------12----14-12------------
d|-12-12-12-12-12-12-12-12-12-14-------------14-12-14-12
a|------------------------------------------------------
e|------------------------------------------------------

e|-------------------------------------------------------
b|--^-15--^-15--^-----------^--------------------^-------
g|-14----14----14-12-14-12-14-12----------12-14-14-12----
d|-------------------------------14-12-14-------------14-
a|-------------------------------------------------------
e|-------------------------------------------------------
_______________________________________________________________________
11) Tourniquet

G|----------------------------8|
D|9b-----9--7--5--7-----7-----7|
{repeat 4x}

quiet part

G|---------------------------------------9-------|
D|7-----10-----7-----10-----7-----10-----------10|


chorus ( i guess)  its not the heavy guitar, but the
quiet guitar in the backgruond


          (Bend up and then back down)
                    |
                    v
G|-------------9---8b--------|
D|7-----10-----------------10|
{repeat 2x}
_______________________________________________________________________
12) Rock Is Dead
e|---------------------------------------
b|---------------------------------------
g|---------------------------------------
d|-----------------------------------7---
a|-4-4-----4-4-4-----4-4-4-----4-4-4-7---
e|-2-0-(2)-0-2-0-(2)-0-2-0-(2)-0-2-0-5---

e|---------------------------------------
b|---------------------------------------
g|---------------------------------------
d|-----------------------------------9---
a|-4-4-----4-4-4-----4-4-4-----4-4-4-9---
e|-2-0-(2)-0-2-0-(2)-0-2-0-(2)-0-2-0-7---
....belong....
e|----------------
b|----------------
g|----------------
d|-7--10--12------
a|-7--10--12------
e|-5---8--10------

ROCK is dead....
e|----------------------------------------------
b|----------------------------------------------
g|----------------------------------------------
d|-11--9/11\9---11--9/11\9--9--7/9\7--9--7/9\5--
a|--9--7/-9\7----9--7/-9\7--7--5/7\5--7--5/7\7--
e|----------------------------------------------

e|------------------------------
b|------------------------------
g|------------------------------
d|-7--6/7\6--7--6/7\6--6----9---
a|-5--4/5\4--5--4/5\4--4----7---
e|--------------------------0---
_______________________________________________________________________
13) Get Your Gunn

Introduction:

D-------------|-----------0-|-------------|-----------0-|
A---7---5/1---|---7---5/1---|---7---5/1---|---7---5/1---|
E-0--0------3-|-0--0--------|-0--0------3-|-0--0--------|

Riff:

D--2-2-2-2-2-2|
A--2-2-2-2-2-2|
E--0-0-0-0-0-0|
^-This is the main riff, and it is played faintly in the back.

Chorus (Power Chords)
G-999/333----------|999/333-/101010--|
D-999/333-55555/666|999/333-/101010--|
A-777/111-55555/666|777/111-/8 8 8 --|
E---------33333/444|---------- - - --| 
:REPEAT

"Get Your Gunn....."lyrics=

D--2--2--2-/+--|--2--2--2-/+--|
A--2--2--2-/+--|--2--2--2-/+--|
E--0--0--0-/+--|--0--0--0-/+--|
REPEAT, then do Power Chords again
_______________________________________________________________________
14) The Nobodies

"YESTERDAY......." 
------------------------------------------------------------------------------------- 
------------------------------------------------------------------------------------- 
-------5----------5------------5--------------5---------5---------5--------5-------5- 
--------------7--------------------------7-------------------7-----------------7----- 
---------------------------------------------------3------------------3-------------- 
-5---------------------5------------------------------------------------------------- 


----------------------------------------------------- 
----------------------------------------------------- 
----5------------5----------------------------------- 
-------6------------6-------------------------------- 
---------7--7---------7------------------------------ 
-0--------------------------------------------------- 


 "..NOBODIES.."(A5) 
------------------------------------------------------- 
------------------------------------------------------ 
----------------------------------------------------- 
--7--7--7--7--7--7--7--7------------------------- 
--7--7--7--7--7--7--7--7-------------------------- 
--5--5--5--5--5--5--5--5------------------------- 

"..SOMEBODIES"(C5) 
------------------------------------------------------- 
------------------------------------------------------ 
----------------------------------------------------- 
-1 0--1 0--1 0--1 0--1 0--1 0--1 0--1 0--------------- 
-1 0--1 0--1 0--1 0--1 0--1 0--1 0--1 0-------------- 
--8----8----8----8----8----8----8----8--------------- 


"..WE'RE DEAD.."(Em) 
------------------------------------------------------- 
------------------------------------------------------ 
----------------------------------------------------- 
--2---2---2---2---2---2---2---2------------------- 
--2---2---2---2---2---2---2---2---------------- 
--0---0---0---0---0---0---0---0--------------- 

"WHO WE        ARRRRRRRE "(A5)       (G5) 
               ---------------------------- 
               --------------------------- 
               ----------------------------- 
               --7--7--7--7----5--5--5--5 
               --7--7--7--7----5--5--5--5 
               --5--5--5--5----3--3--3--3 

"SOME CHILDREN DIED .."(A5) 
------------------------------------------ 
------------------------------------------ 
------------------------------------------ 
--7--7--7--7--7--7--7--7------------------ 
--7--7--7--7--7--7--7--7------------------ 
--5--5--5--5--5--5--5--5------------------ 

(C5) 
-----------------------------------------
-----------------------------------------
-----------------------------------------
-10--10--10--10--10--10--10--10---------- 
-10--10--10--10--10--10--10--10---------- 
--8---8---8---8---8---8---8---8----------

(A5) 
------------------------------------------------- 
------------------------------------------------- 
------------------------------------------------- 
--7--7--7--7--7--7--7--7------------------------- 
--7--7--7--7--7--7--7--7------------------------- 
--5--5--5--5--5--5--5--5------------------------- 

(F5) 
---------------------------------- 
---------------------------------- 
---------------------------------- 
--3--3--3--3--3--3--3--3---------- 
--3--3--3--3--3--3--3--3---------- 
--1--1--1--1--1--1--1--1---------- 

----------------------------------- 
----------------------------------- 
----------------------------------- 
----------------------------------- 
---5----( 7 )---5------------------ 
---------------------------8--7---- 
THEN GO TO FIRST SEQUENCE 

VERY END 

----------------------------------------------------- 
----------------------------------------------------- 
----------------------------------------------------- 
--7--7------7--7-------7--7------7--7---------------- 
--7--7------7--7-------7--7------7--7---------------- 
--5--5------5--5-------5--5------5--5---------------- 
_______________________________________________________________________
15) Long Hard Road Out Of Hell
Intro/Main Bassline
--------------------------------|--------------------------------||
--------------------------------|--------------------------------||
--------------------------------|--------------------------------||
-0-0-0-0-0-0-0-0-3-3-3-3-3-3-3-3|1-1-1-1-1-1-1-1-0-0-0-0-0-0-0-0-||


Intro guitar
--------------------------------|---------------------------------|
--------------------------------|---------------------------------|
-0------------------------------|--------------------------0------|
-------8------------------------|------8--\--3--------------------|
-7------------------------------|7--------------------------------|
--------------------------------|---------------------------------|

--------------------------------|---------------------------------||
--------------------------------|---------------------------------||
--------------------------------|--------------------------0------||
-------8------------------------|------8--\--3--------------------||
-7------------------------------|7--------------------------------||
--------------------------------|---------------------------------||


      1st Verse-no Guitar/Bass continues-

I wanna fly into your sun
I need fear to make me numb
Live like a teenage Christ
I'm a saint, got a date with suicide
Oh, Mary... Mary
    To be this young is oh-so-scary
Mary... Mary 
    To be this young, I'm oh-so-scared
I wanna live
I wanna love
But it's a long hard road out of hell
I wanna live
I wanna love
But it's a long hard road out of hell


Chorus Guitar-
--------------------------------|--------------------------------||
--------------------------------|--------------------------------||
--------------------------------|--------------------------------||
-2-2-2-2-2-2-2-2-5-5-5-5-5-5-5-5|3-3-3-3-3-3-3-3-2-2-2-2-2-2-2-2-||
-2-2-2-2-2-2-2-2-5-5-5-5-5-5-5-5|3-3-3-3-3-3-3-3-2-2-2-2-2-2-2-2-||
-0-0-0-0-0-0-0-0-3-3-3-3-3-3-3-3|1-1-1-1-1-1-1-1-0-0-0-0-0-0-0-0-||

 e               G               F               E
Chorus Bassline-
--------------------------------|---------------------------------------||
--------------------------------|---------------------------------------||
--------------------------------|---------------------------------------||
-0-0-0-0-0-0-0-0-3-3-3-3-3-3-3-3|1-1-1-1-1-1-1-1-12-12-12-12-12-12-12-12||


Use the chord symbols given above as timing measures for the lyrics

     Chorus-

e                   G          F              E 
  You never said forever could ever hurt like this
  You never said forever could ever hurt like this

  e             G          F          E
SP: Doo do-do do   do-do do  do-do   do   do

                                       (SP= girl from the Sneaker Pimps)


     2nd Verse-no guitar/Main bassline-

Spread my way out of hell
there's nothing left of a soul to sell
I live fast, I die fast too
How many times I'd do this for you...
How many times I'd do this for you...
Mary... Mary
    To be this young I'm oh-so-scared
I wanna live
I wanna love
But it's a long hard road out of hell
I wanna live
I wanna love
But it's a long hard road out of hell

[Chorus]... ("do-do do..." part w/Intro guitar riff)

I wanna live
  SP:  (live...)

I wanna love
  SP:  (love...)

But it's a long hard road out of hell
[Repeat]

..LONG HARD ROAD OUT OF HELL!!!
I wanna sell my soul for anything, anything but you...
Sell my soul for anything, anything but you.

Outro guitar-
---------------------------------------------------------------||
---------------------------------------------------------------||
---------------------------------------------------------------||
-2---5---2---9-------8---8-8-8-8-2---5---2---9-------2---5---2-||
-2---5---2---9-------8---8-8-8-8-2---5---2---9-------2---5---2-||
-0---3---0---7-------6---6-6-6-6-0---3---0---7-------0---3---0-||
                         PM_____|

And that's it!!!

_______________________________________________________________________
16) The Beautiful People

Drop D (DADGBe)-All Distortion

Fig #1
E|--------------------------------|
B|--------------------------------|
G|--------------------------------|
D|x-x-x-x-x-x-x-x-x-x-x-x-x-x-x-x-|   
A|x-x-x-x-x-x-x-x-x-x-x-x-x-x-x-x-|
D|x-x-x-x-x-x-x-x-x-x-x-x-x-x-x-x-|

Fig#2
E|----------------------------------|   
B|----------------------------------|   
G|----------------------------------|   
D|-0-3-0----0-3-0----0-3-0----0-3-0-|   
A|-0-3-0----0-3-0----0-3-0----0-3-0-|   
D|-0-3-0----0-3-0----0-3-0----0-3-0-|   

Fig #3
E|------------------------------------|
B|------------------------------------|
G|------------------------------------|
D|--0-6-0-6-0----0-6-0-6-0-----0-3-0--|
A|--0-6-0-6-0----0-6-0-6-0-----0-3-0--|
D|--0-6-0-6-0----0-6-0-6-0-----0-3-0--|

Fig #4
E|-----------------|
B|-----------------|
G|-----------------|
D|-----------------|
A|--5---4---3---2--|
D|-----------------|

Fig #5
E|----------------------------------------------------|
B|----------------------------------------------------|
G|----------------------------------------------------|
D|--x-x-x-3-0----x-x-x-3-0----x-x-x-3-0----x-x-x-3-0--|
A|--x-x-x-3-0----x-x-x-3-0----x-x-x-3-0----x-x-x-3-0--|
D|--x-x-x-3-0----x-x-x-3-0----x-x-x-3-0----x-x-x-3-0--|

Fig #6
E|----------------------------------|
B|----------------------------------|
G|----------------------------------|
D|--0-6-0-6-0----0-6-0-6-0-6-5-3-0--|
A|--0-6-0-6-0----0-6-0-6-0-6-5-3-0--|
D|--0-6-0-6-0----0-6-0-6-0-6-5-3-0--|

Song Order
Fig #1=x2
Fig #2=x1
Fig #3=x4
Fig #1=x2
Fig #4=x2
Fig #3=x4
Fig #5=x2
Fig #3=x4
Fig #4=x2
Fig #3=x4
Fig #5=x3
Fig #6=x4
_______________________________________________________________________
17) The Reflecting God

Intro        x2
--------------------------
--------------------------
--------------------------
-5-4-3-5^--5-4-3-7^-------
--------------------------
--------------------------

Verse
-------------------------------------------
-------------------------------------------
-15--15-----15-----15--15-----15-----15----
-------------------------------------------
-------------------------------------------
-------------------------------------------
Pinch harmonics on verse

My world is unaffected...
----------------------------------
----------------------------------
----------------------------------
-7----------5---------------------
-7-(x23)----5-(x27)---------------
----------------------------------

I went to God...  (x4)Leave out p.m. bit 4th time
--------------------
--------------------
--------------------
-5--3--0-00000------
-5--3--0-00000------
-5--3--0-00000------
         .....
         p.m.

Chorus
------------------
------------------
------------------
-5--5--444432-----
-5--5--444432-----
-5--5--444432-----

Post-Chorus
--------------------------
--------------------------
--------------------------
---3--2^-(x4)--3--2--1--1-
--------------------------
--------------------------

Interlude
-------------------------------------------
-------------------------------------------
-------------------------------------------
-2-------2-------2-------2-----------------
-2-------2-------2-------2-----------------
-2-------2-------2-------2-----------------

No salvation....
-------------------------------------------------------
-------------------------------------------------------
-------------------------------------------------------
-3------2------3------2------3------2------3------2----
-------------------------------------------------------
-------------------------------------------------------
...    ...    ...    ...    ...    ...    ...    ...
p.m.  (This bits in there, trust me)

--------------------
----------15^-------
--------------------
-5------------------
-5------------------
-5------------------

Acoustic bit
E                       Em
I went to God just to see 
E                     Em
And I was looking at me
E                           Em
Saw Heaven and Hell were lies
E
When I'm gone everyone...

Then into chorus. I'm sure you can figure the strumming and order of
the song. Until next time.
                          
_______________________________________________________________________
Related for Lest We Forget tab
Advertisement will be closed in 10 seconds