Song name
# A B C D E F G H I J K L M N O P Q R S T U V W X Y Z

Marilyn Manson - You Spin Me Right Round tab

Marilyn Manson - YOU SPIN ME RIGHT AROUND
Tuning: Standard EADGBE

Intro: guitar 1    
e|----------------------|
B|----------------------|
G|----------------------|
D|-4-4-4-4---7-7--2-2---| x4
A|-4-4-4-4---7-7--2-2---|
E|-2-2-2-2---5-5--0-0---|
Pm..................... 

intro: guitar 2 played with delay start playing this bit on the 3rd time of guitar 1 intro
e|-9b-7b-5b-4b-2b-2b-2b-2b-2b----------------------------|
B|-9b-7b-5b-4b-2b-2b-2b-2b-2b----------------------------|
G|-------------------------------------------------------|
D|-------------------------------------------------------|
A|-------------------------------------------------------|
E|-------------------------------------------------------|

Pre-chorus: guitar 1 (with wah effect)
|-9b-7b-5b-2b~~---|
|-9b-7b-5b-2b~~---|
|-----------------|
|-----------------|
|-----------------|

Pre-chorus: guitar 2
|----------------------|
|----------------------|
|-----------444444444--|
|-4444444444444444444--|
|-4444444442222222222--|
|-222222222------------|
Pm.....................


Verses: guitar 1&2
e|---------------------------------------------------|
B|---------------------------------------------------|
G|---------------------------------------------------|
D|--4-4----------4-4----------7-7----------7-7-------| x2
A|--4-4----------4-4----------7-7----------7-7-------|
E|--2-2----------2-2----------5-5----------5-5-------|

Pre-chorus: guitar 1 (with wah effect)
|-9b-7b-5b-2b~~---|
|-9b-7b-5b-2b~~---|
|-----------------|
|-----------------|
|-----------------|

Pre-chorus: guitar 2
|----------------------|
|----------------------|
|-----------444444444--|
|-4444444444444444444--|
|-4444444442222222222--|
|-222222222------------|
Pm.....................



Verses: guitar 1&2
e|---------------------------------------------------|
B|---------------------------------------------------|
G|---------------------------------------------------|
D|--4-4----------4-4----------7-7----------7-7-------| x2
A|--4-4----------4-4----------7-7----------7-7-------|
E|--2-2----------2-2----------5-5----------5-5-------|

Pre-chorus: guitar 1 (with wah effect)
|-9b-7b-5b-2b~~---|
|-9b-7b-5b-2b~~---|
|-----------------|
|-----------------|
|-----------------|

Pre-chorus: guitar 2
|----------------------|
|----------------------|
|-----------444444444--|
|-4444444444444444444--|
|-4444444442222222222--|
|-222222222------------|
Pm.....................

Chorus: guitar 1&2  
e|-----------------------------------------------------------------------|
B|-----------------------------------------------------------------------|
G|-----------------------------------------------------------------------|
D|-4-4-4-4-4-4-4-4-7-7-7-7-2-2-2-2-4-4-4-4-4-4-4-4-9-9-9-9-2-2-2-2-------|  x4
A|-4-4-4-4-4-4-4-4-7-7-7-7-2-2-2-2-4-4-4-4-4-4-4-4-9-9-9-9-2-2-2-2-------|
E|-2-2-2-2-2-2-2-2-5-5-5-5-0-0-0-0-2-2-2-2-2-2-2-2-7-7-7-7-0-0-0-0-------|



Verses: guitar 1&2
e|---------------------------------------------------|
B|---------------------------------------------------|
G|---------------------------------------------------|
D|--4-4----------4-4----------7-7----------7-7-------|
A|--4-4----------4-4----------7-7----------7-7-------|
E|--2-2----------2-2----------5-5----------5-5-------|

Pre-chorus: guitar 1 (with wah effect)
|-9b-7b-5b-2b~~---|
|-9b-7b-5b-2b~~---|
|-----------------|
|-----------------|
|-----------------|

Pre-chorus: guitar 2
|----------------------|
|----------------------|
|-----------444444444--|
|-4444444444444444444--|
|-4444444442222222222--|
|-222222222------------|
Pm.....................




Chorus: guitar 1&2  
e|-----------------------------------------------------------------------|
B|-----------------------------------------------------------------------|
G|-----------------------------------------------------------------------|
D|-4-4-4-4-4-4-4-4-7-7-7-7-2-2-2-2-4-4-4-4-4-4-4-4-9-9-9-9-2-2-2-2-------|  x4
A|-4-4-4-4-4-4-4-4-7-7-7-7-2-2-2-2-4-4-4-4-4-4-4-4-9-9-9-9-2-2-2-2-------|
E|-2-2-2-2-2-2-2-2-5-5-5-5-0-0-0-0-2-2-2-2-2-2-2-2-7-7-7-7-0-0-0-0-------|

outro: guitar 1&2
|----------------------|
|----------------------|
|-----------444444444--|
|-4444444444444444444--|
|-4444444442222222222--|
|-222222222------------|
Pm.....................


Pre-chorus: guitar 1 (with wah effect)
|-9b-7b-5b-2b~~---|
|-9b-7b-5b-2b~~---|
|-----------------|
|-----------------|
|-----------------|

Pre-chorus: guitar 2
|----------------------|
|----------------------|
|-----------444444444--|
|-4444444444444444444--|
|-4444444442222222222--|
|-222222222------------|
Pm.....................


Chorus: guitar 1&2  
e|-----------------------------------------------------------------------|
B|-----------------------------------------------------------------------|
G|-----------------------------------------------------------------------|
D|-4-4-4-4-4-4-4-4-7-7-7-7-2-2-2-2-4-4-4-4-4-4-4-4-9-9-9-9-2-2-2-2-------|  x4
A|-4-4-4-4-4-4-4-4-7-7-7-7-2-2-2-2-4-4-4-4-4-4-4-4-9-9-9-9-2-2-2-2-------|
E|-2-2-2-2-2-2-2-2-5-5-5-5-0-0-0-0-2-2-2-2-2-2-2-2-7-7-7-7-0-0-0-0-------|

outro: guitar 1&2
|----------------------|
|----------------------|
|-----------444444444--|
|-4444444444444444444--|
|-4444444442222222222--|
|-222222222------------|
Pm.....................
Tap to rate this tab
# A B C D E F G H I J K L M N O P Q R S T U V W X Y Z