Song name
# A B C D E F G H I J K L M N O P Q R S T U V W X Y Z

Marilyn Manson - Evidence tab

-------------------------------------------------------------------------------
			     EVIDENCE - Marilyn Manson
-------------------------------------------------------------------------------
Tabbed by: Adrianna
Email: agetheguitarshredder@yahoo.com

Tuning: EADGBe

e|---------------------------------------
B|-----------------------8-7-5---5-7-8---|
G|-4-7-4-6--4---4-6-7---4-4-4---4-4-4----|
D|---------4---4-4-4---------------------|
A|---------------------------------------|
E|---------------------------------------|

e|---------------------------------------------------------------------------|
B|---------------------------------------------------------------------------|
G|-6b7r6-4~--6b7r6b7r6-4~----------------------------------------------------|
D|------------------------44h5-----------------------------------------------|
A|----------------------------7--7b9~-5---7b9r7b9r7-5----5-----5-5-----------|
E|-------------------------------------7-------------7----7-5h7-7--5---------|

e|-----------------------------------------10h14p10--------------------------|
B|------------------------------------9-11---------12------------------------|
G|--------7----9b11~--9-7---------9-12---------------------------------------|
D|----7h9---9------------9~-----9--------------------------------------------|
A|-5h7----------------------7-10---------------------------------------------|
E|---------------------------------------------------------------------------|

e|-14--15--17--19--22-21-19--21-22b~-22b~-22br22br22br~----------------------|
B|---12--14--15--19----------------------------------------------------------|
G|---------------------------------------------------------------------------|
D|---------------------------------------------------------------------------|
A|---------------------------------------------------------------------------|
E|---------------------------------------------------------------------------|

e|---------------------------------------------------------------------------|
B|--------------8-7----------------------------------------------------------|
G|-7-6-4----4----4-----------------------------------------------------------|
D|-------7b9--7------5s9~----------------------------------------------------|
A|---------------------------------------------------------------------------|
E|---------------------------------------------------------------------------|


| /  slide up
| \  slide down
| h  hammer-on
| p  pull-off
| b  bend
| r  release
| ~  vibrato
| +  harmonic
| x  Mute note
===============================================================================
Tap to rate this tab
# A B C D E F G H I J K L M N O P Q R S T U V W X Y Z