Song name
# A B C D E F G H I J K L M N O P Q R S T U V W X Y Z

Marilyn Manson - Son Of Sam tab

-------------------------------------------------------------------------------
			     SON OF SAM - Marilyn Manson and the Spooky Kids
-------------------------------------------------------------------------------
Tabbed by: EVAN "rebel" Engering
Email: ev007man@hotmail.com
this is a pretty rare song from the early,  pre-NIN days of Manson, here's a link if you 
hear it http://uk.youtube.com/watch?v=pFL4NyFsDeY it's a cool, super-distorted cover of 
Man with original lyrics
Tuning: standard
here's the bass line (same as original Black Sabbath version
e|---------------------------------------------------------------------------|
B|---------------------------------------------------------------------------|
G|---------------------------------------------------------------------------|
D|---------------------------------------------------------------------------|
A|-2--5-5-7-7-10-9-10-9-10-9---5-5-7-7---------------------------------------|
E|---------------------------------------------------------------------------|
this is the distorted lead
e|-7--10-10-12-12--15-14-15--10-10--12-12------------------------------------|
B|---------------------------------------------------------------------------|
G|---------------------------------------------------------------------------|
D|---------------------------------------------------------------------------|
A|---------------------------------------------------------------------------|
E|---------------------------------------------------------------------------|

e-------------------------------------------------------|
B|------------------------------------------------------|
G|------------------------------------------------------|
D|------------------------------------------------------|
A|-----5-------------------------5----------------------|
E|-7-7---7-6-5-5-5-0h4-5-5-6-7-7---7-6-5-5-5-0h4-5-5-6--|
 During that part, lead plays this
e|----------------------12~--12-12--10-10\7--7-5-5/7-------------------------|
B|-3--3p0-0-0-0--------------------------------------------------------------|
G|---------------------------------------------------------------------------|
D|---------------------------------------------------------------------------|
A|---------------------------------------------------------------------------|
E|---------------------------------------------------------------------------|

e|----------------------------------------------------------------------|
B|----------------------------------------------------------------------|
G|----------------------------------------------------------------------|x2
D|------------------------------------7-8-9---------------------7-8-9---|
A|14*----12*-----9--9-------7--7-8-9--------9--9-------7--7-8-9---------|
E|12*----10*-----7--7--7-10-----------------7--7--7-10------------------|
*whammy bar
OUTRO
e|---------------------------------------------------------------------------|
B|-17--15--17-15h17p15~--17--15--17--19-20-19-20-19-15-----------------------|
G|---------------------------------------------------------------------------|
D|---------------------------------------------------------------------------|
A|---------------------------------------------------------------------------|
E|---------------------------------------------------------------------------|
   bass plays
e|---------------------------------------------------------------------------|
B|---------------------------------------------------------------------------|
G|---------------------------------------------------------------------------|
D|---------------------------------------------------------------------------|
A|-7------5-------4----3--2-1--7------5-------4----3--2-1--------------------|
E|---------------------------------------------------------------------------|

end with
e----17-15-17

| /  slide up
| \  slide down
| h  hammer-on
| p  pull-off
| ~  vibrato
| +  harmonic
| x  Mute note
===============================================================================
Tap to rate this tab
# A B C D E F G H I J K L M N O P Q R S T U V W X Y Z