Song name
# A B C D E F G H I J K L M N O P Q R S T U V W X Y Z

Marilyn Manson - Heart-shapped Glasses tab

Heart-Shapped Glasses (When The Heart Guides The Hand) by Marilyn Manson and Tim Skol


Hi, I did not tab this but I organized it. The original tabber is by Deybiz and you can 
him play the song at
            http://www.youtube.com/watch?v=mpFYfr8sRZQ
I only did this because he wrote it out a tad bit counfusingly. I'm pretty much 95% sure 
is the order of the song, so enjoy

Intro

E||-------------------------------------------------|
B||--10--10-10---x-x-x-x--10--10-10-----10---13-13--|
G||--9---9--9----x-x-x-x--9---9--9------9----14-12--|
D||-------------------------------------------------|
A||-------------------------------------------------|
E||-------------------------------------------------|

E||  -----------------------------------------------|
B||  -13-13-13-13---x-13-12--12-12-12-12-12-x-x-----|
G||  -12-12-12-12---x-9--9---9--9--9--9--9--x-x-----|
D||  -----------------------------------------------|
A||  -----------------------------------------------|
E||  -----------------------------------------------|

Verse

E||----------------------------------------------------------------|
B||---6--6--6-6-6--6-6--5-5------18--18--18-18-18--18-18--17-17----|
G||---2--2--2-2-2--2-2--2-2------17--17--17-17-17--17-17--16-16----|
D||----------------------------------------------------------------|
A||----------------------------------------------------------------|
E||----------------------------------------------------------------|

E||-----------------------------------------------------|
B||-13--13--15--17--18--17--15--13--13-13-13/10--10-10--|
G||-----------------------------------------------------|
D||-----------------------------------------------------|
A||-----------------------------------------------------|
E||-----------------------------------------------------|


Chorus
E||-------------------------------------------------|
B||--10--10-10---x-x-x-x--10--10-10-----10---13-13--|
G||--9---9--9----x-x-x-x--9---9--9------9----14-12--|
D||-------------------------------------------------|
A||-------------------------------------------------|
E||-------------------------------------------------|

E||  -----------------------------------------------|
B||  -13-13-13-13---x-13-12--12-12-12-12-12-x-x-----|
G||  -12-12-12-12---x-9--9---9--9--9--9--9--x-x-----|
D||  -----------------------------------------------|
A||  -----------------------------------------------|
E||  -----------------------------------------------|

Post Chorus

E||-------------------------------------------------------------------|
B||--18-18--17----15-15--13----12-12--13----8-8--10-------------------|
G||--17-17--16----14-14--12----11-11--12----7-7--9--------------------|  x2
D||-------------------------------------------------------------------|
A||-------------------------------------------------------------------|
E||-------------------------------------------------------------------|

Pre Chorus

E||-----------------------------------------------------|
B||-13--13--15--17--18--17--15--13--13-13-13/10--10-10--|
G||-----------------------------------------------------|
D||-----------------------------------------------------|
A||-----------------------------------------------------|
E||-----------------------------------------------------|

E||---------------------------------------------------|
A||-13--13--15--17--18--17--15--13-13--13/15--15/17---|
D||---------------------------------------------------|
G||---------------------------------------------------|
B||---------------------------------------------------|
E||---------------------------------------------------|

Chorus

E||-------------------------------------------------|
B||--10--10-10---x-x-x-x--10--10-10-----10---13-13--|
G||--9---9--9----x-x-x-x--9---9--9------9----14-12--|
D||-------------------------------------------------|
A||-------------------------------------------------|
E||-------------------------------------------------|

E||  -----------------------------------------------|
B||  -13-13-13-13---x-13-12--12-12-12-12-12-x-x-----|
G||  -12-12-12-12---x-9--9---9--9--9--9--9--x-x-----|
D||  -----------------------------------------------|
A||  -----------------------------------------------|
E||  -----------------------------------------------|

Post Chorus/Verse

E||-------------------------------------------------------------------|
B||-------------------------------------------------------------------|
G||-------------------------------------------------------------------|  x4
D||---------------------------2---------------------------------------|
A||---0-0-0-2-3-0-0-3-5-2-2-5---5-3-2---------------------------------|
E||-------------------------------------------------------------------|

Outro

E||-------------------------------------------------------------------|
B||--x-x-13--13-x-x-x-x-13--13---13--13-12--12-x-x-x-13-12--12-x-x-x--|
G||--x-x-14--14-x-x-x-x-14--14---14--14-12--12-x-x-x-14-12--12-x-x-x--|  x2
D||-------------------------------------------------------------------|
A||-------------------------------------------------------------------|
E||-------------------------------------------------------------------|
Tap to rate this tab
# A B C D E F G H I J K L M N O P Q R S T U V W X Y Z