Song name
# A B C D E F G H I J K L M N O P Q R S T U V W X Y Z

Marilyn Manson - Arma-god Damn-mother Fuckin-geddon tab

Marilyn Manson - Arma-god-´damn-mother-fuckin'-geddon.
======================================================

Intro con slide/Intro with slide
 v v v        V
---------------------------------|
---------------------------------|
------7/11/-10/11----------------|
-9\4\9---------------------------|
---------------------------------|
---------------------------------|

Estribillo/chours (this is armagodamnmotherfuckin....)
X2 |--------------------------------|  ---------------------------------|
   |--------------------------------|  ---------------------------------|
   |--------------------------------|  ---------7----6------------------|
   |5----4----9-9-7-9-7-9-9-7-9-7-5-|  ----4----7----6----5----7----(9)-|
   |5----4----9-9-7-9-7-9-9-7-9-7-5-|  ----4----5----4----5----7----(9)-|
   |3----2----7-7-5-7-5-7-7-5-7-5-3-|  ----2--------------3----5----(7)-|


"solo slide" (con muxo wah/with much wah)

(ˇˇˇimposible acerlo a la perfeccion pero esta
por los trastes del 17 al 30 con el slide en la primera cuerda y fast picking!!!)

(ˇˇˇ	impossible to do it perfectly, but this
by the 17-30 frets with the slide in the first string fast picking!!!)

-----------------------------|
-----------------------------|
-----------------------------|
x-x-xxxxxxx-x-x-xxxxxxx-x-x--|
x-x-xxxxxxx-x-x-xxxxxxx-x-x--|
x-x-xxxxxxx-x-x-xxxxxxx-x-x--|

(repetir estribillo/repeat chorus)

v= vibrato
x= mute
\or/= slide
Tap to rate this tab
# A B C D E F G H I J K L M N O P Q R S T U V W X Y Z