Song name
# A B C D E F G H I J K L M N O P Q R S T U V W X Y Z

Marilyn Manson - Were From America tab

We’re From America
Marilyn Manson
Tabbed by Dopestar 16-04-2009


| /  slide up
| \  slide down
| h  hammer-on
| p  pull-off
| ~  vibrato
| +  harmonic
| x  Mute note

Tuning:
Drop B
B F# B E G# C#

Intro (2x only this, than it is played along with the low notes)

C#|-----------------------------------------------------------------------|
G#|-----------------------------------------------------------------------|
E |-----------------------------------------------------------------------|
B |-----------------------------------------------------------------------|
F#|-----------------------------------------------------------------------|
B |-4+-4+-4+-4+-4+-4+-4+-4+-4+-4+-3+-3+-3+-3+-3+-3+-3+-3+-3+-3+-2+-2+-2+--|

C#|-----------------------------------------------------------------------------|
G#|-----------------------------------------------------------------------------|
E |-----------------------------------------------------------------------------|
B |-----------------------------------------------------------------------------|
F#|-----------------------------------------------------------------------------|
B |-2+-2+-2+-2+-2+-2+-2+-2+-2+-2+-2+-2+-----------------------------------------|


This seems like crap, but it actually sounds the same as the record, you just need to 
out the way to do it. All harmonics… just slide slowly up, from 4 to 2. The last 4 notes 
actually going down again.

Verse (4x)

C#|-----------------------------------------------------------------------|
G#|-----------------------------------------------------------------------|
E |-----------------------------------------------------------------------|
B |-----------------------------------------------------------------------|
F#|-----------------------------------------------------------------------|
B |-0-0-0-0-0-0-3-0--0-0-0-0-0-0-3-0--0-0-0-0-0-0-3-0--0-0-0-0-0-0-3-0----|

Part of silence when the vocals come in, than after a while the intro starts again. 
by the Verse kicking back in.


Chorus(2x)

C#|-----------------------------------------------------------------------|
G#|-----------------------------------------------------------------------|
E |-----------------------------------------------------------------------|
B |-0-0-0-0-0--0---0-0-0-0-0--0---0-0-0-0-0--0---0-0-0-3-0-3--------------|
F#|-0-0-0-0-0--0---0-0-0-0-0--0---0-0-0-0-0--0---0-0-0-3-0-3--------------|
B |-0-0-0-0-0--0---0-0-0-0-0--0---0-0-0-0-0--0---0-0-0-3-0-3--------------|
        ‘’We’re From…..’’	‘’sing it with me’’

Here you can hear some weird chords, but they don’t contribute anything to playing the 
I think they won’t play them live either.

Intro/Verse again

Chorus(4x)

C#|-----------------------------------------------------------------------|
G#|-----------------------------------------------------------------------|
E |-----------------------------------------------------------------------|
B |-0-0-0-0-0--0---0-0-0-0-0--0---0-0-0-0-0--0---0-0-0-3-0-3--------------|
F#|-0-0-0-0-0--0---0-0-0-0-0--0---0-0-0-0-0--0---0-0-0-3-0-3--------------|
B |-0-0-0-0-0--0---0-0-0-0-0--0---0-0-0-0-0--0---0-0-0-3-0-3--------------|
        ‘’We’re From…..’’	‘’sing it with me’’

Verse with 3 harmonic notes

Use a Whammy Pedal here, 1 Oct Up.

C#|-----------------------------------------------------------------------|
G#|------------------15+--14+--13+----------------------------------------|
E |-----------------------------------------------------------------------|
B |-----------------------------------------------------------------------|
F#|-----------------------------------------------------------------------|
B |-0-0-0-0-0-0-3-0--0-0-0-0-0-0-3-0--0-0-0-0-0-0-3-0--0-0-0-0-0-0-3-0----|

C#|-----------------------------------------------------------------------|
G#|-----------------------------------------------------------------------|
E |-----------------------------------------------------------------------|
B |-----------------------------------------------------------------------|
F#|-----------------------------------------------------------------------|
B |-0-0-0-0-0-0-3-0--0-0-0-0-0-0-3-0--0-0-0-0-0-0-3-0--0-0-0-0-0-0-3-0----|

Another part of silence for the guitar, than the chorus kicks back in!

Chorus(8x)

C#|-----------------------------------------------------------------------|
G#|-----------------------------------------------------------------------|
E |-----------------------------------------------------------------------|
B |-0-0-0-0-0--0---0-0-0-0-0--0---0-0-0-0-0--0---0-0-0-3-0-3--------------|
F#|-0-0-0-0-0--0---0-0-0-0-0--0---0-0-0-0-0--0---0-0-0-3-0-3--------------|
B |-0-0-0-0-0--0---0-0-0-0-0--0---0-0-0-0-0--0---0-0-0-3-0-3--------------|
        ‘’We’re From…..’’	‘’sing it with me’’

Verse with harmonics again

C#|-----------------------------------------------------------------------|
G#|------------------15+--14+--13+----------------------------------------|
E |-----------------------------------------------------------------------|
B |-----------------------------------------------------------------------|
F#|-----------------------------------------------------------------------|
B |-0-0-0-0-0-0-3-0--0-0-0-0-0-0-3-0--0-0-0-0-0-0-3-0--0-0-0-0-0-0-3-0----|

C#|-----------------------------------------------------------------------|
G#|-----------------------------------------------------------------------|
E |-----------------------------------------------------------------------|
B |-----------------------------------------------------------------------|
F#|-----------------------------------------------------------------------|
B |-0-0-0-0-0-0-3-0--0-0-0-0-0-0-3-0--0-0-0-0-0-0-3-0--0-0-0-0-0-0-3-0----|

Outro (2x)

C#|-----------------------------------------------------------------------|
G#|-----------------------------------------------------------------------|
E |-----------------------------------------------------------------------|
B |-----------------------------------------------------------------------|
F#|-----------------------------------------------------------------------|
B |-4+-4+-4+-4+-4+-4+-4+-4+-4+-4+-3+-3+-3+-3+-3+-3+-3+-3+-3+-3+-2+-2+-2+--|

C#|-----------------------------------------------------------------------------|
G#|-----------------------------------------------------------------------------|
E |-----------------------------------------------------------------------------|
B |-----------------------------------------------------------------------------|
F#|-----------------------------------------------------------------------------|
B |-2+-2+-2+-2+-2+-2+-2+-2+-2+-2+-2+-2+-----------------------------------------|

Ok so you need this to play the full song. For me it sounds good, just experiment a bit 
the intro and stuff.. if  you want to know the harmonics in the last chorus just post a 
than I’ll try to figure them out too!
Tap to rate this tab
 
# A B C D E F G H I J K L M N O P Q R S T U V W X Y Z