Song name
# A B C D E F G H I J K L M N O P Q R S T U V W X Y Z

Marilyn Manson - Devour tab

Marilyn Manson - Devour

Standard tuning 


Intro/Verse
e-10-12-10-12-12-12-12-12-12-12-12-12-12--10-12-10-12-12-12-15-15-15-15-12-12-12-|
b-10-10-10-10-10-10-10-10-10-10-10-10-10--10-10-10-10-10-10-10-10-10-10-10-10-10-|
g--------------------------------------------------------------------------------|
d--------------------------------------------------------------------------------| x8
a--------------------------------------------------------------------------------|
e--------------------------------------------------------------------------------|



Chorus
e-----------------------------------------------------------------|
b-----------------------------------------------------------------|
g-----------------------------------------------------------------|
d-3------5------10---9---7-------------3------5------10---12---14-|
a-----------------------------------------------------------------|
e-----------------------------------------------------------------|



Verse 2 (Slight P.M)
e---------12--12--12--12------------------------------------------|
b-8--8--8----------------12--12--12--10--10--10--10--10--10-------|
g-----------------------------------------------------------------|
d-----------------------------------------------------------------|  x7
a-----------------------------------------------------------------|
e-----------------------------------------------------------------|

e---------12--12--12--12------------------------------------------|
b-8--8--8----------------12--12--12--12--12--12--12--12-----------|
g-----------------------------------------------------------------|
d-----------------------------------------------------------------| 
a-----------------------------------------------------------------|
e-----------------------------------------------------------------|






Chorus
e-----------------------------------------------------------------|
b-----------------------------------------------------------------|
g-----------------------------------------------------------------|
d-3------5------10---9---7-------------3------5------10---12---14-|
a-----------------------------------------------------------------|
e-----------------------------------------------------------------|



Verse 3 (w/Distortion)
e-----------------------------------------------------------------|
b-----------------------------------------------------------------|
g-----------------------------------------------------------------|
d-----------------------------------------------------------------|  x6
a-10-10-10-5-5-5-7-7-7-7-7-7-7-7---5-5-5-10-10-10-7-7-7-7-7-7-7-7-|
e-8--8--8--3-3-3-5-5-5-5-5-5-5-5---3-3-3-8--8--8--5-5-5-5-5-5-5-5-|



Chorus
e-----------------------------------------------------------------|
b-----------------------------------------------------------------|
g-----------------------------------------------------------------|
d-3------5------10---9---7-------------3------5------10---12---14-|
a-----------------------------------------------------------------|
e-----------------------------------------------------------------|
Tap to rate this tab
# A B C D E F G H I J K L M N O P Q R S T U V W X Y Z