Song name
# A B C D E F G H I J K L M N O P Q R S T U V W X Y Z

Marilyn Manson - I Want To Kill You Like They Do In The Movies tab

Marilyn Manson - I Want To Kill You Like They Do In The Movies

Standard Tuning

/  Slide Up 
\  Slide Down 
h  Hammer On 
p  Pull Off  
b  Bend 
r   Release 
v  Vibrato




Riff A
0:18 - 1:32
E|-----------------------------------|
B|-----------------------------------|
G|-----------------------------------|
D|-----------------------------------|
A|--------2-----2-----2--------------|
E|--0--------0-----0-------7--9--10--|



Riff B 
1:32 - 1:47 (The Riff A continues playing behind this riff)
E|--------------------------------|
B|--------------------------------|
G|--------------------------------|
D|--------------------------------|  x4
A|--12-12-12-12-12-X--9----7/9-9--|
E|--10-10-10-10-10-X--7----5/7-7--|



Riff A
1:47 - 3:02
E|-----------------------------------|
B|-----------------------------------|
G|-----------------------------------|
D|-----------------------------------|
A|--------2-----2-----2--------------|
E|--0--------0-----0-------7--9--10--|



Riff B
3:02 - 3:16  (The Riff A continues playing behind this riff)
E|--------------------------------|
B|--------------------------------|
G|--------------------------------|
D|--------------------------------|  x4
A|--12-12-12-12-12-X--9----7/9-9--|
E|--10-10-10-10-10-X--7----5/7-7--|



Riff C
3:16 - 3:46
E|------------------------------------|
B|------------------------------------|
G|------------------------------------|
D|------------------------------------|
A|--------9-----7-----7-----7--9--10--|
E|--0--------0-----0-----0------------|



Riff D
3:46 - 9:01
E|-----------------------------------------------------------------------------------------------|
B|-----------------------------------------------------------------------------------------------|
G|-----------------------------------------------------------------------------------------------|
D|--4-4--4-4--4-4--4-4---4-4-4---4-4--4-4--4-4--4-4--4-4--4-4--4-4---4-4-4---4-4--4-4---4-4-4-4--|
A|--4-4--4-4--4-4--4-4---4-4-4---4-4--4-4--4-4--4-4--4-4--4-4--4-4---4-4-4---4-4--4-4---4-4-4-4--|
E|--2-2--2-2--2-2--2-2---2-2-2---2-2--2-2--2-2--2-2--2-2--2-2--2-2---2-2-2---2-2--2-2---2-2-2-2--|


Riff E
7:45 - 9:01  (along with Riff D)
E|-------------------------------------------------------------------------|
B|--7-7-X-X-7-7-X-X-7-7-X-X-7-7-X-X-7-7-X-X-7-7-X-X-7-7-X-X-10-10-10-10----|
G|--6-6-X-X-6-6-X-X-6-6-X-X-6-6-X-X-6-6-X-X-6-6-X-X-6-6-X-X-9--9--9--9-----|
D|--4-4-X-X-4-4-X-X-4-4-X-X-4-4-X-X-4-4-X-X-4-4-X-X-4-4-X-X----------------|
A|-------------------------------------------------------------------------|
E|-------------------------------------------------------------------------|
Tap to rate this tab
# A B C D E F G H I J K L M N O P Q R S T U V W X Y Z