Song name
# A B C D E F G H I J K L M N O P Q R S T U V W X Y Z

Marilyn Manson - Pretty As A Swastika tab

Help us improve GuitareTab! Take a short survey!
Marilyn Manson - Pretty As A Swastika

Tuning: Drop D

Intro
0:06 - 0:28
E|---------------------------------------------------|
B|---------------------------------------------------|
G|---------------------------------------------------|
D|--12-12-12-12-12-12-12-12-15-15-15-15-15-15-15-15--| x6
A|--12-12-12-12-12-12-12-12-15-15-15-15-15-15-15-15--|
D|--12-12-12-12-12-12-12-12-15-15-15-15-15-15-15-15--|


Verse 1
0:28 - 0:50
E|---------------------------------------------------------------------------------|
B|---------------------------------------------------------------------------------|
G|---------------------------------------------------------------------------------|
D|-8-8-8-8-8-8-8-8-8-8-8-8-8-8-8-8-12-12-12-12-12-12-12-12-15-15-15-15-15-15-15-15-|
A|-8-8-8-8-8-8-8-8-8-8-8-8-8-8-8-8-12-12-12-12-12-12-12-12-15-15-15-15-15-15-15-15-|
D|-8-8-8-8-8-8-8-8-8-8-8-8-8-8-8-8-12-12-12-12-12-12-12-12-15-15-15-15-15-15-15-15-|

---------------------------------------------------|
---------------------------------------------------|
---------------------------------------------------|
--12-12-12-12-12-12-12-12-15-15-15-15-15-15-15-15--| x2
--12-12-12-12-12-12-12-12-15-15-15-15-15-15-15-15--|
--12-12-12-12-12-12-12-12-15-15-15-15-15-15-15-15--|

Pre-Chorus
0:50 - 0:58
E|--------------------|
B|--------------------|
G|--------------------|
D|--8-8-8-8-8-8-8-8---| x4
A|--8-8-8-8-8-8-8-8---|
D|--8-8-8-8-8-8-8-8---|

Chorus
0:58 - 1:12
E|-------------------------|
B|-------------------------|
G|-------------------------|
D|--0-0---0-0---0-0---0-0--| x4
A|--0-0---0-0---0-0---0-0--|
D|--0-0---0-0---0-0---0-0--|

Verse 2
1:12 - 1:20
E|---------------------------------------------------|
B|---------------------------------------------------|
G|---------------------------------------------------|
D|--12-12-12-12-12-12-12-12-15-15-15-15-15-15-15-15--| x2
A|--12-12-12-12-12-12-12-12-15-15-15-15-15-15-15-15--|
D|--12-12-12-12-12-12-12-12-15-15-15-15-15-15-15-15--|

1:35 - 1:46
E|---------------------------------------------------------------------------------|
B|---------------------------------------------------------------------------------|
G|---------------------------------------------------------------------------------|
D|-8-8-8-8-8-8-8-8-8-8-8-8-8-8-8-8-12-12-12-12-12-12-12-12-15-15-15-15-15-15-15-15-|
A|-8-8-8-8-8-8-8-8-8-8-8-8-8-8-8-8-12-12-12-12-12-12-12-12-15-15-15-15-15-15-15-15-|
D|-8-8-8-8-8-8-8-8-8-8-8-8-8-8-8-8-12-12-12-12-12-12-12-12-15-15-15-15-15-15-15-15-|

---------------------------------------------------|
---------------------------------------------------|
---------------------------------------------------|
--12-12-12-12-12-12-12-12-15-15-15-15-15-15-15-15--|
--12-12-12-12-12-12-12-12-15-15-15-15-15-15-15-15--|
--12-12-12-12-12-12-12-12-15-15-15-15-15-15-15-15--|

Pre Chorus
1:46 - 1:53
E|-------------------|
B|-------------------|
G|-------------------|
D|--8-8-8-8-8-8-8-8--| x4
A|--8-8-8-8-8-8-8-8--|
D|--8-8-8-8-8-8-8-8--|

Chorus
1:53 - 2:23
E|-------------------------|
B|-------------------------|
G|-------------------------|
D|--0-0---0-0---0-0---0-0--| x8
A|--0-0---0-0---0-0---0-0--|
D|--0-0---0-0---0-0---0-0--|
Related for Pretty As A Swastika tab