Song name
# A B C D E F G H I J K L M N O P Q R S T U V W X Y Z

Marilyn Manson - Arma-goddamn-motherfucking-geddon tab

Help us improve GuitareTab! Take a short survey!
--------------------------------------------------------------------------

Arma-Goddamn-Motherfucking Geddon - Marilyn Manson
-------------------------------------------------------------------------------
Tabbed by:
Email:

Tuning: Standard

x4
e|-----------------------|
B|-------------7~~~------|
G|------4~-7~------------|
D|---4~------------------|
A|-----------------------|
E|-----------------------|
Don't be fooled, what's played under this is really the keyboard and bass.  This is the 
guitar part for this section.

Then, the guitar is silent for the verse, pre-chorus, etc.

But it comes back for this, the chorus.
x2
e|---------------------------------------------------------------------------|
B|---------------------------------------------------------------------------|
G|---------------------------------------------------------------------------|
D|-5-5-5-5-4-4-4-4--4-4---4---4--4---4---4-----------------------------------|
A|-5-5-5-5-4-4-4-4--2-2-0h2-0h2--2-0h2-0h2-----------------------------------|
E|-3-3-3-3-2-2-2-2-----------------------------------------------------------|

the rest of the chorus, played once at the end of doing the first part twice.
e|--------------------------------------------------------------------------|
B|--------------------------------------------------------------------------|
G|-----------------7-7-7-7-6-6-6-6------------------------------------------|
D|-5-5-5-5-4-4-4-4-7-7-7-7-6-6-6-6-5-5-5-5-7-7-7-7--------------------------|
A|-5-5-5-5-4-4-4-4-5-5-5-5-4-4-4-4-5-5-5-5-7-7-7-7--------------------------|
E|-3-3-3-3-2-2-2-2-----------------3-3-3-3-5-5-5-5--------------------------|

bridge x2
This is split into two parts.
e|--------------------------------------------------------------------------|
B|--------------------------------------------------------------------------|
G|--------------------------------------------------------------------------|
D|--------------------------------------------------------------------------|
A|-2/--2/--2/--2-2-0-0-2/--2/--2/--5-5-5-5----------------------------------|
E|--------------------------------------------------------------------------|

e|--------------------------------------------------------------------------|
B|--------------------------------------------------------------------------|
G|--------------------------------------------------------------------------|
D|--------------------------------------------------------------------------|
A|-1^/--1^/--1^/--1^/--0/2--1^/--1^/--1^--5-5-5-5---------------------------|
E|--------------------------------------------------------------------------|

repeat verse and pre-chorus with guitars silent, again.  (The lyrics change though, of course.)

then:
chorus x1 (all sections together, and played the correct amount of times individually.)

Guitar solo (mostly made up of whammy bar and scratching)

Chorus 2 x6
Mute it just so that it makes a sound.  For results closets to the actual song, have 
fingers touching somewhere around the 9th fret, and press lightly.  Then pick the strings 
your fingers are in this position.
e|--------------------------------------------------------------------------|
B|--------------------------------------------------------------------------|
G|--------------------------------------------------------------------------|
D|--------------------------------------------------------------------------|
A|--------------------------------------------------------------------------|
E|-x-x-xx-xx-xx-x-xxxxxx----------------------------------------------------|

chorus x1 (all sections together, and played the correct amount of times individually.)

bridge x2

| /  slide up
| \  slide down
| h  hammer-on
| p  pull-off
| ~  vibrato
| +  harmonic
| x  Mute note
===============================================================================
Related for Arma-goddamn-motherfucking-geddon tab