Song name
# A B C D E F G H I J K L M N O P Q R S T U V W X Y Z

Marilyn Manson - Scaredy Cat tab

This is an old, unreleased MM song.

Tabbed by Tom Marshall         *=Harmonics    .=Palm Mute  b=bend

                               v=vibrato
INTR0
-----------------------------------------2b2b2b2b--|
-----------------------------------------2b2b2b2b--|
---------555-----555---------555-----555-----------|
---5-7---555-777-555-4444----555-777-555-----------|
---5-7---333-777-333-4444----333-777-333-----------|
---3-5-------555-----2222--------555---------------|

-----------------------------------14b14b14b14b--|
-------------------------------------------------|
---555-----555---------555-----555---------------|
---555-777-555-4444----555-777-555---------------|
---333-777-333-4444----333-777-333---------------|
-------555-----2222--------555-------------------|


VERSE  (Listen for timing)                          VERSE pt2
-------------2222----14141414----2222-------------  -------|
--------------------------------------------------  -------|
--------------------------------------------------  -------|
--------------------------------------------------  ---6---| (x8)
--------------------------------------------------  ---6---|
---2*2*2*2*-----------------------------2*2*2*2*--  ---4---|
                                                       .

RIGHT BEFORE CHORUS
-------------|
-------------|
-------------|
---5-3-------|
-------3-1---|
-------------|

CHORUS
---------------------------|
---------------------------|
---------------------------| (x2)
---------------------------|
---2-33--2-33--2-33--2-33--|
---0-11--0-11--0-11--0-11--|

----------------------------|
----------------------------|
----------------------------|
----------------------------| (x2)
---6-77--6--77--6-77--6-77--|
---4-55--4--55--4-55--4-55--|

-------------------------------------|
-------------------------------------|
-------------------------------------|
---6---------6--77---6--77----6--66--|
---6---------6--77---6--77----6--66--|
---4---------4--55---4--55----4--44--|

(FOR VERSE 2 DO A COMBO OF THE VERSE FIRST THEN THE INTRO PALM MUTED)

CHORUS

little riff before solo
-------------|
-------------|
-------------|
-------------|
---------3v--|
---4--5------|

solo (transfer the intro chords into notes and screw around with em)

LAST VERSE (PALM MUTED)
------------------------|
------------------------|
------------------------|
---55-------555---------|
---33--777--333-6-6666--|
-------555------4-4444--|

CHORUS
Tap to rate this tab
# A B C D E F G H I J K L M N O P Q R S T U V W X Y Z