Song name
# A B C D E F G H I J K L M N O P Q R S T U V W X Y Z

Marilyn Manson - Into The Fire tab

-------------------------------------------------------------------------------
			     INTO THE FIRE [Guitar Solo] - Marilyn Manson
-------------------------------------------------------------------------------
Tabbed by: Justice4AllOne
Email: Justice4AllOne@aol.com

Tuning: E Standard

e|---------------------------------------------------------------------------|
B|---------------------------------------------------------------------------|
G|---------------------------------------------------------------------------|
D|---------6--8b-----6--8b-----6--8br--6-----6~--6--8--8b--8brbr--8br--6-----|
A|--8~--8---------8---------8-------------8-------------------------------8--|
E|---------------------------------------------------------------------------|

e|---------------------------------------------------------------------------|
B|---------------------------------------------------------------------------|
G|---------------------------------------------------------------------------|
D|-----------6-----6-----6~--6-----6------6~--6---------6--8b--8b--8br--8--6-|
A|--6--8--8-----8-----8---------8-----8----------8~--8-----------------------|
E|---------------------------------------------------------------------------|

e|---------------------------------------------------------------------------|
B|---------------------------------------------------------------------------|
G|---------------------------------------------------------------------------|
D|---------------6--------6--------6--------6--------6--8--8b--8b--8br--6----|
A|--8--6~--6--8-----6--8-----6--8-----6--8-----6--8------------------------8-|
E|---------------------------------------------------------------------------|

e|---------------------------------------------------------------------------|
B|---------------------------------------------------------------------------|
G|---------------------------------------------------------------------------|
D|-------6--8--8br--6-----------6-----6--8--8br--6-----------6-----6--8--10--|
A|-6--8----------------8--6--8-----8----------------8--6--8-----8------------|
E|---------------------------------------------------------------------------|

e|---------------------------------------------------------------------------|
B|---------9------9------9--11b----------------------------------------------|
G|--8--10-----10-----10------------------------------------------------------|
D|---------------------------------------------------------------------------|
A|---------------------------------------------------------------------------|
E|---------------------------------------------------------------------------|

(Play above twice)

e|---------------------------------------------------------------------------|
B|--11r--9~--9-------------9------9--11--11b--11br--9-----------9------9--9--|
G|--------------10--8--10-----10-----------------------10~--10-----10--------|
D|---------------------------------------------------------------------------|
A|---------------------------------------------------------------------------|
E|---------------------------------------------------------------------------|

e|---------------------------------------------------------------------------|
B|--8~--8--------------9--9--11b--11br--9----------9------9--11--11br--9-----|
G|---------10--10--10----------------------10--10-----10------------------10-|
D|---------------------------------------------------------------------------|
A|---------------------------------------------------------------------------|
E|---------------------------------------------------------------------------|

e|---------------------------------------------------------------------------|
B|---------------------------------------------------------------------------|
G|--8---------8---------8---------8-------------8--10--8---------8---------8-|
D|-----8--10-----8--10-----8--10-----8~--8--10------------8--10-----8--10----|
A|---------------------------------------------------------------------------|
E|---------------------------------------------------------------------------|

e|---------------------------------------------------------------------------|
B|----------------------------------------------------------------------13---|
G|--10--10--8--10--10~--10--10--10--8~--8--8--8--7~--7--8--7--8/10--12-------|
D|---------------------------------------------------------------------------|
A|---------------------------------------------------------------------------|
E|---------------------------------------------------------------------------|

e|---------------------------------------------------------------------------|
B|--13--13--13--13--13--13--13--13--13--13--13--13--13--13--13--13-----------|
G|--12--12--12--12--12--12--12--12--12--12--12--12--12--12--12--12--/10------|
D|-------------------------------------------------------------------x-------|
A|------------------------------------------------------------------/8-------|
E|---------------------------------------------------------------------------|


| /  slide up
| \  slide down
| h  hammer-on
| p  pull-off
| ~  vibrato
| +  harmonic
| x  Mute note
| b  Bend
| r  Release bend
===============================================================================
Tap to rate this tab
# A B C D E F G H I J K L M N O P Q R S T U V W X Y Z