Song name
# A B C D E F G H I J K L M N O P Q R S T U V W X Y Z

Marilyn Manson - Long Hard Road Out Of Hell tab

-------------------------------------------------------------------------------
			     Long Hard Road Out of Hell - Marilyn Manson
-------------------------------------------------------------------------------
Tabbed by:
Email:

Tuning: e B G D A E

verse (acoustic):
e|---------------------|----|
B|---------------------|----|
G|-------------------0-|----|
D|---8---------8-------|----|
A|-7---------7---8-----|-7~-|
E|---------------------|----|
                        ^2nd time only

pre-chorus (acoustic):
e|-------------------------------------------------------------------------|
B|-------------------------------------------------------------------------|
G|-9-9-9-9-9-9-9-9-12-12-12-12-12-12-12-12-1010101010101010-9-9-9-9-9-9-9-9|
D|-9-9-9-9-9-9-9-9-12-12-12-12-12-12-12-12-1010101010101010-9-9-9-9-9-9-9-9|
A|-7-7-7-7-7-7-7-7-10-10-10-10-10-10-10-10-8-8-8-8-8-8-8-8--7-7-7-7-7-7-7-7|
E|-0-0-0-0-0-0-0-0------------------------------------------0-0-0-0-0-0-0-0|

chorus (distorted):
e|-------------------------------------------------------------------------|
B|-------------------------------------------------------------------------|
G|-9-9-9-9-9-9-9-9-12-12-12-12-12-12-12-12-1010101010101010-9-9-9-9-9-9-9-9|
D|-9-9-9-9-9-9-9-9-12-12-12-12-12-12-12-12-1010101010101010-9-9-9-9-9-9-9-9|
A|-7-7-7-7-7-7-7-7-10-10-10-10-10-10-10-10-8-8-8-8-8-8-8-8--7-7-7-7-7-7-7-7|
E|-0-0-0-0-0-0-0-0------------------------------------------0-0-0-0-0-0-0-0|

e|-------------------------------------------------------------------------|
B|-------------------------------------------------------------------------|
G|-9-9-9-9-9-9-9-9-12-12-12-12-12-12-12-12-1010101010101010-9-9-9-9-9-9----|
D|-9-9-9-9-9-9-9-9-12-12-12-12-12-12-12-12-1010101010101010-9-9-9-9-9-9----|
A|-7-7-7-7-7-7-7-7-10-10-10-10-10-10-10-10-8-8-8-8-8-8-8-8--7-7-7-7-7-72-22|
E|-0-0-0-0-0-0-0-0------------------------------------------0-0-0-0-0-00-00|
                                                                       x-xx |      
verse 2:
e|-------------------------------------------------------------------------|
B|-------------------------------------------------------------------------|
G|-9-9-9-9-9-9-9-9-12-12-12-12-12-12-12-12-1010101010101010-9-9-9-9-9-9-9-9|
D|-9-9-9-9-9-9-9-9-12-12-12-12-12-12-12-12-1010101010101010-9-9-9-9-9-9-9-9|
A|-7-7-7-7-7-7-7-7-10-10-10-10-10-10-10-10-8-8-8-8-8-8-8-8--7-7-7-7-7-7-7-7|
E|-0-0-0-0-0-0-0-0------------------------------------------0-0-0-0-0-0-0-0|
   x x x x x x x x x  x  x  x  x  x  x  x  x x x x x x x x  x x x x x x x x

end riff:
e|-------------------------------|
B|-------------------------------|
G|-9-9-9-9--------9-9-9----------|
D|-9-9-9-9--------9-9-9-8--2-5-2-|
A|-7-7-7-7--------7-7-7-8--2-5-2-|
E|-0-0-0-0-0-0000-0-0-0-6--0-3-0-|
-|           xxxx                |
e|-------------------------------|
B|-------------------------------|
G|-------------------------------|
D|-------------------------------|
A|-7^(8)-7--------7^(8)-7--------|
E|-------------------------------|

Order:
verse x2
verse (guitars silent)
pre-chorus x4
chorus x4
verse 2 x8
chorus x2
verse x2
pre-chorus x2
chorus x4
end riff x6 (guitar 2 plays only the last x4)


| /  slide up
| \  slide down
| h  hammer-on
| p  pull-off
| ~  vibrato
| +  harmonic
| x  Mute note
===============================================================================
Tap to rate this tab
# A B C D E F G H I J K L M N O P Q R S T U V W X Y Z