Song name
# A B C D E F G H I J K L M N O P Q R S T U V W X Y Z

Marilyn Manson - New Model No 15 tab

-------------------------------------------------------------------------------
			     NEW MODEL 15 - Marilyn Manson
-------------------------------------------------------------------------------
Tabbed by: ironmanben
Email: bentrooper@gmail.com

Tuning: e B G D A D

main riff:
e|------------------------------------------------------|
B|------------------------------------------------------|
G|------------------------------------------------------|
D|-3-3-3-3--3-1/3-3-3-3--3-1/3-3-3-3--3-1/3-3-3-5-5-5-3-|
A|-x---x-x--x-x/x---x-x--x-x/x---x-x--x-x/x---x-x-x-x-x-|
D|-3---3-3--3-1/3---3-3--3-1/3---3-3--3-1/3---3-5-5-5-3-|

verse:
e|--------------------------------------------------------|
B|---6------------6------------6------------6-------------|
G|--------------------------------------------------------|
D|-3---3-3--3-1/3---3-3--3-1/3---3-3--3-1/3---3-3/6-6-6-3-|
A|--------------------------------------------------------|
D|--------------------------------------------------------|

pre-chorus 1:
e|---------------------------------------|
B|---------------------------------------|
G|---------------------------------------|
D|---6---6---6---6-3-6-3-6-3-6-3-6-------|
A|---------------------------------------|
E|-3---3---3---3-------------------------|

pre-chorus 2:
e|------------|
B|------------|
G|-5-8---3----|
D|-5-8---3--6-|
A|-3-6---1--6-|
E|----------6-|

bridge:
e|---------------------------------|
B|---------------------------------|
G|---------------------------------|
D|---------------------------------|
A|---------------------------------|
E|-1-1-1-1-1-1-1-1-1-1-1-1-1-1-1-1-|

verse 2: (keyboard arr. for guitar)
e|---------------------9-|
B|-----------------------|
G|---3-1---------3-1-----|
D|-3-----3-3---3-----3---|
A|-----------------------|
E|-----------------------|

bridge:
e|----------------------------------------------|
B|----------------------------------------------|
G|----------------------------------------------|
D|-88888888-66666666-88888888-44444444-66666666-|
A|-88888888-66666666-88888888-44444444-66666666-|
E|-88888888-66666666-88888888-44444444-66666666-|

guitar solo:
e|----------------------------------------------------|
B|-----10-----------------------------11---9----------|
G|--------9---6^--------6^---8^(10)----------8~--/13~-|
D|-8-8------8----8-8--8----8--------8----6------------|
A|----------------------------------------------------|
E|----------------------------------------------------|

bridge 2:
e|--------------------------------|
B|--------------------------------|
G|--------------------------------|
D|-3-3------3-3------3-3------3-3-|
A|-3-3------3-3------3-3------3-3-|
E|-3-3------3-3------3-3------3-3-|

Order:
main riff x1
verse x1
pre-chorus 1 x1
pre-chorus 2 x1
main riff x3
bridge x1
verse x1
verse 2 x2
pre-chorus 2 x1
main riff x4
bridge 2 x2 (guitar solo over 2nd time)
bridge 3 x1
verse 2 x2
bridge 3 x2
pre-chorus 2 x1
main riff (guitar silent) x1
main riff x5
bridge x2 



| /  slide up
| \  slide down
| h  hammer-on
| p  pull-off
| ~  vibrato
| +  harmonic
| x  Mute note
===============================================================================
Tap to rate this tab
# A B C D E F G H I J K L M N O P Q R S T U V W X Y Z