Song name
# A B C D E F G H I J K L M N O P Q R S T U V W X Y Z

Marilyn Manson - Disposable Teens tab

"Disposable Teens"
Marilyn Manson
Holy Wood

Main Riff:

e|------------------------------------------------|
b|------------------------------------------------|
g|------------------------------------x-x-x-x--x--|
d|-7--7--5--10-10---5--7--7--7--5--7--x-x-x-x--x--|
a|-5--5--3---8--8---3--5--5--5--3--5--x-x-x-x--x--|
E|------------------------------------x-x-x-x--x--|

Verse/1st Chorus:

e|---------------------------------------------|-----------|
b|---------------------------------------------|-----------|
g|---------------------------------------------|-----------|
d|--0--0---x-x-x-x-x--0---0--0---x-x-x-x-x-x-x-|-0-3-0-3-3-|
a|--0--0---x-x-x-x-x--0---0--0---x-x-x-x-x-x-x-|-0-3-0-3-3-|
E|--0--0---x-x-x-x-x--0---0--0---x-x-x-x-x-x-x-|-0-3-0-3-3-|
          ^ Repeat 2 times and then play-----------^

Bridge:

e|---------|---|----------------|
b|---------|---|----------------|
g|---------|---|-------------7--|
d|-5-5-5-5-|-6-|-x--x--x--x--x--|
a|-3-3-3-3-|-4-|-x--x--x--x--5--|
E|---------|---|-x--x--x--x-----|
Tap to rate this tab
 
# A B C D E F G H I J K L M N O P Q R S T U V W X Y Z