Song name
# A B C D E F G H I J K L M N O P Q R S T U V W X Y Z

Marilyn Manson - Coma White Acoustic tab

Tuning:Standard (e-A-D-G-B-E)[Low To High]
Artist:Marilyn Manson

This Is How I Play The Song.It's Fun Playing Like This.Try It Out.Pretty Easy.

Intro/Verse

E--0-0-0--0--0-0--0-0--0-0-0--------|
B--0-0-0--0--0-0--0-0--1-1-1--------|
G--2-2-2--2--2-2--2-2--2-2-2--------|
D--2-2-2--2--2-2--2-2--2-2-2--------|
A--0-0-0--0--0-0--0-0--0-0-0--------|
e-----------------------------------|   x3

E--0-0-0--0--0-0--0-0--0-0-0--------|
B--3-3-3--3--1-1--1-1--0-0-0--------|
G--2-2-2--2--2-2--2-2--0-0-0--------|
D--2-2-2--2--2-2--2-2--0-0-0--------|
A--0-0-0--0--2-2--2-2--0-0-0--------|
e-----------------------------------|

Chorus

E--0-0-0--0--0-0-0-0--0--0-0--0-0-0--0--0-0-0-0--0--0-0-----|
B--2-2-2--2--2-2-2-2--2--2-2--1-1-1--1--1-1-1-1--1--1-1-----|
G--2-2-2--2--2-2-2-2--2--2-2--0-0-0--0--0-0-0-0--0--0-0-----|
D--2-2-2--2--2-2-2-2--2--2-2--2-2-2--2--2-2-2-2--2--2-2-----|
A--0-0-0--0--0-0-0-0--0--0-0--3-3-3--3--3-3-3-3--3--3-3-----|
e-----------------------------------------------------------|

E--3-3-3--3--3-3-3-3--3--3-3--1-1-1--1--1-1-1-1--1--1-1-----|
B--3-3-3--3--3-3-3-3--3--3-3--1-1-1--1--1-1-1-1--1--1-1-----|
G--0-0-0--0--0-0-0-0--0--0-0--2-2-2--2--2-2-2-2--2--2-2-----|
D--0-0-0--0--0-0-0-0--0--0-0--3-3-3--3--3-3-3-3--3--3-3-----|
A--2-2-2--2--2-2-2-2--2--2-2--0-0-0--0--0-0-0-0--0--0-0-----|
e--3-3-3--3--3-3-3-3--3--3-3--------------------------------|

Post-Chorus/Bridge

E--0-0-0--0-0-0-0--2--0-0--0-0-0--0-0-0-0--2--0-0-----------|
B--2-2-2--1-1-1-1--3--3-3--3-3-3--1-1-1-1--3--2-2-----------|
G--2-2-2--0-0-0-0--2--3-3--3-3-3--0-0-0-0--2--2-2-----------|
D--2-2-2--2-2-2-2--0--3-3--3-3-3--2-2-2-2--0--2-2-----------|
A--0-0-0--3-3-3-3-----0-0--0-0-0--3-3-3-3-----0-0-----------|
e-----------------------------------------------------------|

E--0-0-0--0-0-0-0--2--1--1-1-1-1-1-1-1-1--------------------|
B--2-2-2--1-1-1-1--3--1--1-1-1-1-1-1-1-1--------------------|
G--2-2-2--0-0-0-0--2--2--2-2-2-2-2-2-2-2--------------------|
D--2-2-2--2-2-2-2--0--3--3-3-3-3-3-3-3-3--------------------|
A--0-0-0--3-3-3-3-----0--0-0-0-0-0-0-0-0--------------------|
e-----------------------------------------------------------|

Outro


E-----------------------------------|
B-----2-----2-----------------------|
G--0--0--0--2--0--------------------|
D--0--3--0--2--0--------------------|
A--0--4--0--0--0--------------------|
e--0-----0-----0--------------------|

That's It.Enjoy.
Tap to rate this tab
 
# A B C D E F G H I J K L M N O P Q R S T U V W X Y Z