Song name
# A B C D E F G H I J K L M N O P Q R S T U V W X Y Z

Marilyn Manson - Slutgarden tab

-------------------------------------------------------------------------------
			     SLUTGARDEN - Marilyn Manson
-------------------------------------------------------------------------------
Tabbed by: ironmanben
Email: bentrooper@gmail.com

Tuning: e B G D A E

main riff:
e|---------------------------------|
B|---------------------------------|
G|---------------------------------|
D|-3-------3---------------3---3-5-|
A|-3-5-335-3-5-6-5---5-335-3-5-3-5-|
D|-0-0-000-0-0-0-0---0-000-0-0-0---|


chorus:
e|--------------------------------------------------------------------|
B|--------------------------------------------------------------------|
G|--------------------------------------------------------------------|
D|-0-3-3-3-3-3-5-5------------------0-3-3-3-3-3-3-5-0-0---------------|
A|-0-3-3-3-3-3-5-5-5-8-5-3-5-8-10-8-0-3-3-3-3-3-3-5-0-0-5-5-5-5-3-5-8-|
E|-0-3-3-3-3-3-5-5-0-0-0-0-0-0-0--0-0-3-3-3-3-3-3-5-0-0-0-0-0-0-0-0-0-|


post-chorus:
e|-------------------|
B|-----------10------|
G|-----------12^(14)-|
D|-6-6-6-6-6---------|
A|-6-6-6-6-6---------|
D|-6-6-6-6-6---------|


post-chorus 2:
(This is the part that goes: "Well I memorized the words to the porno movies...")
e|-----------------------------------------|
B|-----------------------------------------|
G|-------7---------7---------7---------7---|
D|-0-------0-3-------0-1-------0-0-------0-|
A|-----------------------------------------|
E|-----------------------------------------|


outro:
e|---------------------------------|
B|---------------------------------|
G|---------------------------------|
D|-0-------3-------1-------0-------|
A|---------------------------------|
E|---------------------------------|


Order:
main riff x10
chorus x2
post-chorus x4
post-chorus 2 x2
main riff x4
chorus x2
post-chorus x4
post-chorus 2 x2
bass and synth fill "I never believed..."
chorus x4
outro x2


************************************

| /   slide up
| \   slide down
| h   hammer-on
| p   pull-off
| ~   vibrato
| +   harmonic
| x   Mute note
| b   Bend
| pb  Pre-bend
| br  Bend release
| pbr Pre-bend release
| brb Bend release bend

************************************
Tap to rate this tab
 
# A B C D E F G H I J K L M N O P Q R S T U V W X Y Z