Song name
# A B C D E F G H I J K L M N O P Q R S T U V W X Y Z

Marilyn Manson - The Reflecting God tab

-------------------------------------------------------------------------------
			     The Reflecting God - Marilyn Manson
-------------------------------------------------------------------------------
Tabbed by:Luizza 69
Email:pirating.pirate@gmail.com

My first tab FTW!

Great Manson song and pretty cool guitar riffs, this is how i play it, I think it
sounds pretty solid,
Dont Criticize me for timing related stuff, if you need any help with timing either as 
or just listen to the song.

Tuning: Standard

Intro, Distorted, (I add in Flange usually)
e|-----------------------------------------------------------------------------|
B|-----------------------------------------------------------------------------|
G|-----------------------------------------------------------------------------|
D|-----------------------------------------------------------------------------|
A|-8-7\5/7--8-7\5/11--11-11\8-7\5/7-8-7\5/11-11-11\----------------------------|
E|-----------------------------------------------------------------------------|

Verse

Palm-Mute all notes on E string.
The Nature of The Leeches. . . a Second of Your Life
e|--------------------------------------------------------------------------|
B|--------------------------------------------------------------------------|
G|--------------------------------13--13-----------------------------13-----|
D|--------------------------------------------------------------------------|
A|--------------------------------------------------------------------------|
E|12-12-12-12-12-12-12---12-12-12--------12-12-12-12-12-----12-12-12--------|

Pre-Chorus

For this part i used the live recording on The Last Tour on Earth because i could
not get the part
 from the Antichrist Superstar recording, however this part works great. Another
thing, cut off the
last powerchord right before you go into the Chorus.

I went to god. . . everyone dies
e|----------------------------------------------------------------------------|
B|----------------------------------------------------------------------------|
G|--5----2--------------------------------------------------------------------|
D|--5----2----4---------------------------------------------------------------|
A|--3----0----4---------------------------------------------------------------|
E|------------2---------------------------------------------------------------|

Chorus

Scar, Scar. . .Gets Smaller
e|--------------------------------------------------------------------------|
B|--------------------------------------------------------------------------|
G|--------------------------------------------------------------------------|
D|-2-2--8-8-8-7--5-4--------------------------------------------------------|
A|-2-2--8-8-8-7--5-4--------------------------------------------------------|
E|-0-0--6-6-6-5--3-2--------------------------------------------------------|

Interlude
Very fun :D

e|--------------------------------------------------------------------------------|
B|--------------------------------------------------------------------------------|
G|--------------Do this part 3 times----------------------------------------------|
D|-----------|--b----------|------------------------------------------------------|
A|---b-<4x>-hp---|--7-4x--hp---|--------------------------------------------------|
E|0-5----030-|0-5------030-|------------------------------------------------------|

Repeat Verse-Chorus
Each Thing I show you is a peace of my death
4times

e|--------------------------------------------------------------------------|
B|--------------------------------------------------------------------------|
G|--------------------------------------------------------------------------|
D|-2------------------------------------------------------------------------|
A|-2------------------------------------------------------------------------|
E|-0------------------------------------------------------------------------|

No Salvation, no Forgiveness
The  means hit that note 14 times
e|--------------------------------------------------------------------------------|
B|--------------------------------------------------------------------------------|
G|-----Do 4 times---------------------Do 4 times---------Do 8 Times---------------|
D|--------------------------------|---------------|-------------------------------|
A|-7-7-7-8-8-8-5-7-7-8-8-8-7-7-5-5|---------------|------b------------------------|
E|--------------------------------|-12- 10-10-----|-12--13--------------|

On the 4th part of  the riff you do 8 times a 2nd guitar plays this
e|------b-[play riff 7x]-|--------------------------------------------------------|
B|-17--18----------17---|--------------------------------------------------|
G|-x----------------x---|-9----10-10------------------------------------------|
D|-14---------------14--|-x-----------------play riff 5x--------------------------|
A|-x--------------------|-7-------------------------------------------------------|
E|-0------------0-0-----|-0-------------------------------------------------------|

Acoustic Part
If electric, use clean with some reverb
e|-0--0-0-0-0-0-0-0-0|-----0-0-0--0-0-0-0-0-0-|-Play|---0-0-0-0-0-0-0-0-0-0-----|
B|-1--1-1-1-2-2-0-0-0|-----0-0-0--0-0-0-0-0-0-|-Part|---0-0-0-3-3-3-3-3-3-0-----|
G|-0--0-0-0-2-2-2-0-0|-----0-0-0--0-0-0-0-0-0-|-1---|---0-0-0-0-0-0-0-0-0-0-----|
D|-2--2-2-2-2-2-2-0-0|-----2-2-2--2-2-2-2-2-2-|-----|---2-2-2-2-2-2-2-2-2-0-----|
A|-3--3-3-3-0-0-0----|-2-2-2-2-2--2-2-2-2-2-2-|-----|2--2-2-2-2-2-2-2-2-2-------|
E|--------------Part1|-0-0-0-0-0--0-0-0-0-0-0-|-----|0--0-0-0-0-0-0-0-0-0-------|

e|----------------------------------------------------------------------------|
B|----------------------------------------------------------------------------|
G|---------------------9-----------10~----------------------------------------|
D|-10-9----9---10-9--------10-9-----------------------------------------------|
A|------12----------12----------12--------------------------------------------|
E|----------------------------------------------------------------------------|

Repeat Chorus and outro guitar part is as follows:
e|--------------------------------------------------------------------------|
B|--------------------------------------------------------------------------|
G|--------------------------------------------------------------------------|
D|--2-2/8--11-8--11-8--8-8/2--2-2--2-2-2-2/-8--11-8--11-8--8-8\2-2-2--2-2---|
A|--------------------------------------------------------------------------|
E|--------------------------------------------------------------------------|

Great song, hopesfully people will play it right now.

| /  slide up
| \  slide down
| h  hammer-on
| p  pull-off
| ~  vibrato
| +  harmonic
| x  Mute note
|  Bend
===============================================================================
Tap to rate this tab
 
# A B C D E F G H I J K L M N O P Q R S T U V W X Y Z