Song name
# A B C D E F G H I J K L M N O P Q R S T U V W X Y Z

Marilyn Manson - Angel With The Scabbed Wings tab

Help us improve GuitareTab! Take a short survey!
marilyn manson
angel with the scabbed wings


p.m.=palm mute

Intro: 
|-------------|
|-------------|
|-------------| x12
|--2-3-4\2-1--| 
|--2-3-4\2-1--|
|--2-3-4\2-1--|

|------------------------------------|
|------------------------------------|
|------------------------------------|
|--2-1--2-2-2-2-2-2--2--2-2-2-2-2-2--|
|--2-1--2-2-2-2-2-2--2--2-2-2-2-2-2--|
|--2-1--2-2-2-2-2-2--2--2-2-2-2-2-2--|
        p.m.-------     p.m.--------

Verse:
|------------------------------------|
|------------------------------------|
|------------------------------------|
|------------------------------------|
|--2-1--2-2-2-2-2-2--2--2-2-2-2-2-2--|
|--2-1--2-2-2-2-2-2--2--2-2-2-2-2-2--|
        p.m.-------     p.m.-------

1:10
|--------------------|
|--------------------|
|--------------------|
|--2-1--2-2-2-2-2-2--|
|--2-1--2-2-2-2-2-2--|
|--2-1--2-2-2-2-2-2--|
        p.m.-------

|------------------------------|
|------------------------------|
|------------------------------|
|--6--9-9--12--1-1-1-1-1-1--4--|
|--6--9-9--12--1-1-1-1-1-1--4--|
|--6--9-9--12--1-1-1-1-1-1--4--|
               p.m.-------

Verse 2:
|-------------|
|-------------|
|-------------|
|--2-3-4\2-1--| 
|--2-3-4\2-1--|
|--2-3-4\2-1--|

|------------------------------|
|------------------------------|
|------------------------------|
|--6--9-9--12--1-1-1-1-1-1--4--|
|--6--9-9--12--1-1-1-1-1-1--4--|
|--6--9-9--12--1-1-1-1-1-1--4--|
               p.m.-------

|---------------|
|---------------|
|---------------|
|--9-8--2-3--4--|
|--9-8--2-3--4--|
|--9-8--2-3--4--|

|------------------------------------|
|------------------------------------|
|------------------------------------|
|------------------------------------|
|--2-1--2-2-2-2-2-2--2--2-2-2-2-2-2--|
|--2-1--2-2-2-2-2-2--2--2-2-2-2-2-2--|
        p.m.-------     p.m.-------

|------------------------------------|
|------------------------------------|
|------------------------------------|
|--2-1--2-2-2-2-2-2--2--2-2-2-2-2-2--|
|--2-1--2-2-2-2-2-2--2--2-2-2-2-2-2--|
|--2-1--2-2-2-2-2-2--2--2-2-2-2-2-2--|
        p.m.-------     p.m.--------

guitar 2: 3:21
|--------------------------------------------------------------------|
|--------------------------------------------------------------------|
|--10~~~~15-13~~~~~~~~15b(1/4)--15b(1/2)--15--13b(1/2)--13--7-9--21--|
|--------------------------------------------------------------------|
|--------------------------------------------------------------------|
|--------------------------------------------------------------------|
Related for Angel With The Scabbed Wings tab