Song name
# A B C D E F G H I J K L M N O P Q R S T U V W X Y Z

Marilyn Manson - Wormboy tab

Song: Wormboy (intro)
Artist: Marilyn Manson
Tabbed by: vic (civ182@hotmail.com)
The 1st part is absolutely 100% correct, the 2nd im 90% sure about.

e|-------------------|
B|-------------------|
B|---4-4-------7-7---| x2
D|---4-4--3-3--7-7---|
A|---2-2--3-3--5-5---|
E|--------1-1--------|

e|----------------------------|
B|----------------------------|
B|------------^-----------^---|
D|------------8-----------6---|
A|---7-----------7------------|
E|------7-8-9-------7-8-9-----|
Tap to rate this tab
# A B C D E F G H I J K L M N O P Q R S T U V W X Y Z