Song name
# A B C D E F G H I J K L M N O P Q R S T U V W X Y Z

Marilyn Manson - Lamb Of God tab

Intro:

E|-----------------------------------------|
B|-----------------------------------------|
G|---5-------4----2--0---------------------|
D|---7-------5----3--2---------------------| 
A|---7-------5----3--2---------------------|
E|-----------------------------------------|


Verso:

E|--------------------0----1---------------|
B|--------1-----------0----1---------------|
G|--------1-----------0----2---------------|
D|-----2--2--------0--0----3---------------|
A|---0----------------0----3---------------|
E|---------------3---------1---------------|


Pre-Chorus:

If you die... (Am)
E|---0--0--0--0--0--0--0--0----------------|
B|---1--1--1--1--1--1--1--1----------------|
G|---2--2--2--2--2--2--2--2----------------|
D|---2--2--2--2--2--2--2--2----------------|
A|---0--0--0--0--0--0--0--0----------------|
E|-----------------------------------------|

No one (G) watching..(F)
E|---3--3--3--3----1--1--1--1--------------|
B|---3--3--3--3----1--1--1--1--------------|
G|---0--0--0--0----2--2--2--2--------------|
D|---0--0--0--0----3--3--3--3--------------|
A|---2--2--2--2----3--3--3--3--------------|
E|---3--3--3--3----1--1--1--1--------------|


Chorus:

Nothing's... (C)
E|---0--0--0--0--0--0--0--0----------------|
B|---1--1--1--1--1--1--1--1----------------|
G|---0--0--0--0--0--0--0--0----------------|
D|---2--2--2--2--2--2--2--2----------------|
A|---3--3--3--3--3--3--3--3----------------|
E|-----------------------------------------|


Change... (G)
E|---3--3--3--3--3--3--3--3----------------|
B|---3--3--3--3--3--3--3--3----------------|
G|---0--0--0--0--0--0--0--0----------------|
D|---0--0--0--0--0--0--0--0----------------|
A|---2--2--2--2--2--2--2--2----------------|
E|---3--3--3--3--3--3--3--3----------------|


Nothing's going the change... (F)
E|---1--1--1--1--1--1--1--1----------------|
B|---1--1--1--1--1--1--1--1----------------|
G|---2--2--2--2--2--2--2--2----------------|
D|---3--3--3--3--3--3--3--3----------------|
A|---3--3--3--3--3--3--3--3----------------|
E|---1--1--1--1--1--1--1--1----------------|


Interlude:
 
E|-----------------------------------------|
B|----------------3---3---3--5-------------|
G|---2---2--4--5--------5------2--2--------|
D|-----------------------------------------|
A|-----------------------------------------|
E|-----------------------------------------|

E|-----------------------------------------|
B|------------3----------------------------|
G|---2--4--5--------5--4-------------------|
D|-----------------------------------------|
A|-----------------------------------------|
E|-----------------------------------------|

Tap to rate this tab
 
# A B C D E F G H I J K L M N O P Q R S T U V W X Y Z