Song name
# A B C D E F G H I J K L M N O P Q R S T U V W X Y Z

Marilyn Manson - 1996 tab

Tuning: Drop D
;= hit 4 times
'= hit 8 times
*= hit 16 times
&= hit 60 times
\= slide down

Intro:
E|-------------------------|
B|-------------------------|
G|-10-10-7-9-6-6------7----|
D|-10-10-7-9-6-6--x2--7----|
A|--8--8-5-7-4-4------5----|
D|-------------------------|

Riff 1:
E|------------------------|
B|------------------------|
G|------------------------|
D|-2-2-5-7-5-8-8-8-7-5----|
A|-2-2-5-7-5-8-8-8-7-5----|
D|-2-2-5-7-5-8-8-8-7-5----|

Chorus 1:
E|---------------------------------------------|
B|---------------------------------------------|
G|---------------------------------------------|
D|-2--5--8--7-x-x-xxx-2--5--0--2-x-x-xxx-------|
A|-2--5--8--7-x-x-xxx-2--5--0--2-x-x-xxx-x2----|
D|-2--5--8--7-x-x-xxx-2--5--0--2-x-x-xxx-------|

After Chorus 1:
E|--------------------------------------|
B|--------------------------------------|
G|-7-7-9-7-7-9-12'--7-7-9-7-7-9-3'------|
D|-7-7-9-7-7-9-12'--7-7-9-7-7-9-3'--x2--|
A|-5-5-7-5-5-7-10'--5-5-7-5-5-7-1'------|
D|--------------------------------------|
Play this part rather with a wah-wah pedal on with the pedal leand back so you get the 
and bizzare sound(sounds like "wooh").

Riff 2:
E|------------------|
B|------------------|
G|------------------|
D|-8-8-8-7-5--------|
A|-8-8-8-7-5--x4----|
D|-8-8-8-7-5--------|

Riff 1

Chorus 1+2:
E|-----------------------------------------------------------|
B|-----------------------------------------------------------|
G|-----------------------------------------------------------|
D|-2--5--8--7-x-x-xxx-2--5--0--2-x-x-xxx-----2--5--8--7--5-7-|
A|-2--5--8--7-x-x-xxx-2--5--0--2-x-x-xxx-x2--2--5--8--7--5-7-|
D|-2--5--8--7-x-x-xxx-2--5--0--2-x-x-xxx-----2--5--8--7--5-7-|

  ---------------------------------------------------------|
  ---------------------------------------------------------|
  ---------------------------------------------------------|
  -2--5--0--2-x-x-xxx-2--5--8--7--5-7-2--5--0--2--8-7-2----|
  -2--5--0--2-x-x-xxx-2--5--8--7--5-7-2--5--0--2--8-7-2----|
  -2--5--0--2-x-x-xxx-2--5--8--7--5-7-2--5--0--2--8-7-2----|

Bridge:
E|-------------------------------------------|
B|-------------------------------------------|
G|-9*-12*-14'-15'-16;-17;-18;-19;-20;-21&-\--|
D|-x*--x*--x'--x'--x;--x;--x;--x;--x;--x&-\--|
A|-7*-10*-12'-13'-14;-15;-16;-17;-18;-19&-\--|
D|-------------------------------------------|

Chorus 1 two times and at the end...
E|------|
B|------|
G|------|
D|-2----|
A|-2----|
D|-2----|
Tap to rate this tab
 
# A B C D E F G H I J K L M N O P Q R S T U V W X Y Z