Song name
# A B C D E F G H I J K L M N O P Q R S T U V W X Y Z

Marilyn Manson - Coma White Acoustic chords

Highlighted       Show chord diagrams
Intro

e-------------------------------------------------------|
B------0------0------0------0-----0---0-----------------|
G----4------4------4------4-----5---5-------------------|  (x3)
D--7------7------7------7-------------------------------|
A-------------------------------------------------------|
E-------------------------------------------------------|

(continued)
e-------------------------------------------------------|
B-------0-----0-----0-----0-----0-----0-----0-----0-----|
G--5/7-----7-----7-----7-----5-----5-----4-----4--------|
D-------------------------------------------------------|
A-------------------------------------------------------|
E-------------------------------------------------------|


[PLAY INTRO ALL THROUGH FIRST VERSE]


There's something cold and blank
Behind her smile
She's standing on an overpass
In a miracle mile
Cause you were from a perfect world
A world that threw me away today, today, today
To run away


Am
  A pill to make you numb
C
  A pill to make you dumb
G		    F
  A pill to make you anybody else
Am 			   C
  But all the drugs in this world
       G                F
 won't save her from herself


SOLO
e-5-5-5-5----5----------5------5---------------------------|
B----------8----8-7--7----7--6----6p5h6--------------------|
G----------------------------------------------------------| (x2)
D----------------------------------------------------------|
A----------------------------------------------------------|
E----------------------------------------------------------|


[PLAY INTRO ALL THROUGH SECOND VERSE]
Her mouth was an empty cut
She was waiting to fall
Just bleeding like a poloroid
That lost all her dolls
Cause you were from a perfect world
A world that threw me away today, today, today
To run away

Am
  A pill to make you numb
C
  A pill to make you dumb
G		    F
  A pill to make you anybody else
Am 			   C
  But all the drugs in this world
       G                F
 won't save her from herself


Am
  A pill to make you numb
C
  A pill to make you dumb
G		    F
  A pill to make you anybody else
Am 			   C
  But all the drugs in this world
       G                F
 won't save her from herself

End Chorus
e--------------------------------------------------------|
B--------------------------------------------------------|
G--------------------------------------------------------|    x5
D-77777777/1010101010101010\55555555\33333333------------|
A-77777777/1010101010101010\55555555\33333333------------|
E-55555555/8-8-8-8-8-8-8-8-\33333333\11111111------------|

OUTRO [same as solo]
e-5-5-5-5----5----------5------5---------------------------|
B----------8----8-7--7----7--6----6p5h6--------------------|
G----------------------------------------------------------| (x2)
D----------------------------------------------------------|
A----------------------------------------------------------|
E----------------------------------------------------------|

-----------

If there's anything you like to sugest, i'll be able on:
dann.ie@hotmail.com
spleenandcigars@gmail.com

Enjoy!
Tap to rate this tab
 
# A B C D E F G H I J K L M N O P Q R S T U V W X Y Z